  0
SECTION
  2
HEADER
  9
$ACADVER
  1
AC1014
  9
$ACADMAINTVER
 70
         0
  9
$DWGCODEPAGE
  3
ANSI_1252
  9
$INSBASE
 10
0.0
 20
0.0
 30
0.0
  9
$EXTMIN
 10
0.0
 20
-12.127406
 30
0.0
  9
$EXTMAX
 10
178.6096
 20
108.6096
 30
0.0
  9
$LIMMIN
 10
0.0
 20
0.0
  9
$LIMMAX
 10
0.0
 20
0.0
  9
$ORTHOMODE
 70
         0
  9
$REGENMODE
 70
         1
  9
$FILLMODE
 70
         1
  9
$QTEXTMODE
 70
         0
  9
$MIRRTEXT
 70
         1
  9
$DRAGMODE
 70
         2
  9
$LTSCALE
 40
1.0
  9
$OSMODE
 70
         0
  9
$ATTMODE
 70
         1
  9
$TEXTSIZE
 40
0.2
  9
$TRACEWID
 40
0.05
  9
$TEXTSTYLE
  7
STANDARD
  9
$CLAYER
  8
0
  9
$CELTYPE
  6
CONTINUOUS
  9
$CECOLOR
 62
       256
  9
$CELTSCALE
 40
1.0
  9
$DELOBJ
 70
         1
  9
$DISPSILH
 70
         0
  9
$DIMSCALE
 40
1.0
  9
$DIMASZ
 40
0.18
  9
$DIMEXO
 40
0.0625
  9
$DIMDLI
 40
0.38
  9
$DIMRND
 40
0.0
  9
$DIMDLE
 40
0.0
  9
$DIMEXE
 40
0.18
  9
$DIMTP
 40
0.0
  9
$DIMTM
 40
0.0
  9
$DIMTXT
 40
0.18
  9
$DIMCEN
 40
0.09
  9
$DIMTSZ
 40
0.0
  9
$DIMTOL
 70
         0
  9
$DIMLIM
 70
         0
  9
$DIMTIH
 70
         1
  9
$DIMTOH
 70
         1
  9
$DIMSE1
 70
         0
  9
$DIMSE2
 70
         0
  9
$DIMTAD
 70
         0
  9
$DIMZIN
 70
         0
  9
$DIMBLK
  1

  9
$DIMASO
 70
         1
  9
$DIMSHO
 70
         1
  9
$DIMPOST
  1

  9
$DIMAPOST
  1

  9
$DIMALT
 70
         0
  9
$DIMALTD
 70
         2
  9
$DIMALTF
 40
25.4
  9
$DIMLFAC
 40
1.0
  9
$DIMTOFL
 70
         0
  9
$DIMTVP
 40
0.0
  9
$DIMTIX
 70
         0
  9
$DIMSOXD
 70
         0
  9
$DIMSAH
 70
         0
  9
$DIMBLK1
  1

  9
$DIMBLK2
  1

  9
$DIMSTYLE
  2
STANDARD
  9
$DIMCLRD
 70
         0
  9
$DIMCLRE
 70
         0
  9
$DIMCLRT
 70
         0
  9
$DIMTFAC
 40
1.0
  9
$DIMGAP
 40
0.09
  9
$DIMJUST
 70
         0
  9
$DIMSD1
 70
         0
  9
$DIMSD2
 70
         0
  9
$DIMTOLJ
 70
         1
  9
$DIMTZIN
 70
         0
  9
$DIMALTZ
 70
         0
  9
$DIMALTTZ
 70
         0
  9
$DIMFIT
 70
         3
  9
$DIMUPT
 70
         0
  9
$DIMUNIT
 70
         2
  9
$DIMDEC
 70
         4
  9
$DIMTDEC
 70
         4
  9
$DIMALTU
 70
         2
  9
$DIMALTTD
 70
         2
  9
$DIMTXSTY
  7
STANDARD
  9
$DIMAUNIT
 70
         0
  9
$LUNITS
 70
         2
  9
$LUPREC
 70
         4
  9
$SKETCHINC
 40
0.1
  9
$FILLETRAD
 40
0.0
  9
$AUNITS
 70
         0
  9
$AUPREC
 70
         0
  9
$MENU
  1
acad
  9
$ELEVATION
 40
0.0
  9
$PELEVATION
 40
0.0
  9
$THICKNESS
 40
0.0
  9
$LIMCHECK
 70
         0
  9
$BLIPMODE
 70
         1
  9
$CHAMFERA
 40
0.0
  9
$CHAMFERB
 40
0.0
  9
$CHAMFERC
 40
0.0
  9
$CHAMFERD
 40
0.0
  9
$SKPOLY
 70
         0
  9
$TDCREATE
 40
2455799.528182870
  9
$TDUPDATE
 40
0.000000000
  9
$TDINDWG
 40
0.0000000000
  9
$TDUSRTIMER
 40
0.0000000000
  9
$USRTIMER
 70
         1
  9
$ANGBASE
 50
0.0
  9
$ANGDIR
 70
         0
  9
$PDMODE
 70
         0
  9
$PDSIZE
 40
0.0
  9
$PLINEWID
 40
0.0
  9
$COORDS
 70
         0
  9
$SPLFRAME
 70
         0
  9
$SPLINETYPE
 70
         6
  9
$SPLINESEGS
 70
         8
  9
$ATTDIA
 70
         0
  9
$ATTREQ
 70
         1
  9
$HANDLING
 70
         1
  9
$HANDSEED
  5
4A8
  9
$SURFTAB1
 70
         6
  9
$SURFTAB2
 70
         6
  9
$SURFTYPE
 70
         6
  9
$SURFU
 70
         6
  9
$SURFV
 70
         6
  9
$UCSNAME
  2

  9
$UCSORG
 10
0.0
 20
0.0
 30
0.0
  9
$UCSXDIR
 10
1.0
 20
0.0
 30
0.0
  9
$UCSYDIR
 10
0.0
 20
1.0
 30
0.0
  9
$PUCSNAME
  2

  9
$PUCSORG
 10
0.0
 20
0.0
 30
0.0
  9
$PUCSXDIR
 10
1.0
 20
0.0
 30
0.0
  9
$PUCSYDIR
 10
0.0
 20
1.0
 30
0.0
  9
$USERI1
 70
        -3
  9
$USERI2
 70
         0
  9
$USERI3
 70
         0
  9
$USERI4
 70
         0
  9
$USERI5
 70
         0
  9
$USERR1
 40
0.0
  9
$USERR2
 40
0.0
  9
$USERR3
 40
0.0
  9
$USERR4
 40
0.0
  9
$USERR5
 40
0.0
  9
$WORLDVIEW
 70
         1
  9
$SHADEDGE
 70
         3
  9
$SHADEDIF
 70
        70
  9
$TILEMODE
 70
         1
  9
$MAXACTVP
 70
        16
  9
$PINSBASE
 10
0.0
 20
0.0
 30
0.0
  9
$PLIMCHECK
 70
         0
  9
$PEXTMIN
 10
1.0000000000E+20
 20
1.0000000000E+20
 30
1.0000000000E+20
  9
$PEXTMAX
 10
-1.0000000000E+20
 20
-1.0000000000E+20
 30
-1.0000000000E+20
  9
$PLIMMIN
 10
0.0
 20
0.0
  9
$PLIMMAX
 10
12.0
 20
9.0
  9
$UNITMODE
 70
         0
  9
$VISRETAIN
 70
         0
  9
$PLINEGEN
 70
         1
  9
$PSLTSCALE
 70
         0
  9
$TREEDEPTH
 70
      3020
  9
$PICKSTYLE
 70
         1
  9
$CMLSTYLE
  2
STANDARD
  9
$CMLJUST
 70
         0
  9
$CMLSCALE
 40
1.0
  9
$PROXYGRAPHICS
 70
         0
  9
$MEASUREMENT
 70
         0
  0
ENDSEC
  0
SECTION
  2
CLASSES
  0
CLASS
  1
LWPOLYLINE
  2
AcDbPolyline
  3
"AutoCAD"
 90
        0
280
         0
281
         1
  0
CLASS
  1
IMAGE
  2
AcDbRasterImage
  3
ISM
 90
      127
280
         0
281
         1
  0
CLASS
  1
OLE2FRAME
  2
AcDbOle2Frame
  3
""
 90
        0
280
         0
281
         1
  0
CLASS
  1
HATCH
  2
AcDbHatch
  3
"ACAD_SEDONA"
 90
        0
280
         0
281
         1
  0
CLASS
  1
DICTIONARYVAR
  2
AcDbDictionaryVar
  3
"AutoCAD"
 90
        0
280
         0
281
         0
  0
CLASS
  1
RASTERVARIABLES
  2
AcDbRasterVariables
  3
ISM
 90
        0
280
         0
281
         0
  0
CLASS
  1
IMAGEDEF
  2
AcDbRasterImageDef
  3
ISM
 90
        0
280
         0
281
         0
  0
CLASS
  1
IMAGEDEF_REACTOR
  2
AcDbRasterImageDefReactor
  3
ISM
 90
        1
280
         0
281
         0
  0
CLASS
  1
IDBUFFER
  2
AcDbIdBuffer
  3
"Acad"
 90
        0
280
         0
281
         0
  0
CLASS
  1
SPATIAL_FILTER
  2
AcDbSpatialFilter
  3
"Acad"
 90
        0
280
         0
281
         0
  0
CLASS
  1
XRECORD
  2
AcDbXrecord
  3
"<Built In>"
 90
        0
280
         0
281
         0
  0
CLASS
  1
SORTENTSTABLE
  2
AcDbSortentsTable
  3
"AutoCAD"
 90
        0
280
         0
281
         0
  0
CLASS
  1
LAYER_INDEX
  2
AcDbLayerIndex
  3
"Acad"
 90
        0
280
         0
281
         0
  0
CLASS
  1
SPATIAL_INDEX
  2
AcDbSpatialIndex
  3
"Acad"
 90
        0
280
         0
281
         0
  0
CLASS
  1
OBJECT_PTR
  2
CAseDLPNTableRecord
  3
"ASE-LPNTableRecord"
 90
        1
280
         0
281
         0
  0
CLASS
  1
LAYOUT
  2
AcDbLayout
  3
"AutoCAD 2000"
 90
        0
280
         0
281
         0
  0
CLASS
  1
PLOTSETTINGS
  2
AcDbPlotSettings
  3
"AutoCAD 2000"
 90
        0
280
         0
281
         0
  0
CLASS
  1
ACDBDICTIONARYWDFLT
  2
AcDbDictionaryWithDefault
  3
"AutoCAD 2000"
 90
        0
280
         0
281
         0
  0
CLASS
  1
ACDBPLACEHOLDER
  2
AcDbPlaceHolder
  3
"AutoCAD 2000"
 90
        0
280
         0
281
         0
  0
CLASS
  1
VBA_PROJECT
  2
AcDbVbaProject
  3
"acadvba"
 90
        0
280
         0
281
         0
  0
CLASS
  1
WIPEOUT
  2
AcDbWipeout
  3
WipeOut|AutoCAD Express Tool|expresstools@autodesk.com
 90
      127
280
         0
281
         1
  0
CLASS
  1
WIPEOUTVARIABLES
  2
AcDbWipeoutVariables
  3
WipeOut|AutoCAD Express Tool|expresstools@autodesk.com
 90
        0
280
         0
281
         0
  0
CLASS
  1
RTEXT
  2
RText
  3
RText|AutoCAD Express Tool|expresstools@autodesk.com
 90
        0
280
         0
281
         1
  0
CLASS
  1
ARCALIGNEDTEXT
  2
AcDbArcAlignedText
  3
ATEXT|AutoCAD Express Tool|expresstools@autodesk.com
 90
        0
280
         0
281
         1
  0
ENDSEC
  0
SECTION
  2
TABLES
  0
TABLE
  2
VPORT
  5
7
100
AcDbSymbolTable
 70
         1
  0
VPORT
  5
15
100
AcDbSymbolTableRecord
100
AcDbViewportTableRecord
  2
*ACTIVE
 70
         0
 10
0.0
 20
0.0
 11
1.0
 21
1.0
 12
6.591288
 22
4.579184
 13
0.0
 23
0.0
 14
1.0
 24
1.0
 15
0.0
 25
0.0
 16
0.0
 26
0.0
 36
1.0
 17
0.0
 27
0.0
 37
0.0
 40
9.158369
 41
0.688564
 42
50.0
 43
0.0
 44
0.0
 50
0.0
 51
0.0
 71
         0
 72
       100
 73
         1
 74
         1
 75
         0
 76
         0
 77
         0
 78
         0
  0
ENDTAB
  0
TABLE
  2
LTYPE
  5
4
100
AcDbSymbolTable
 70
         3
  0
LTYPE
  5
11
100
AcDbSymbolTableRecord
100
AcDbLinetypeTableRecord
  2
BYBLOCK
 70
        64
  3

 72
        65
 73
         0
 40
0.0
  0
LTYPE
  5
12
100
AcDbSymbolTableRecord
100
AcDbLinetypeTableRecord
  2
BYLAYER
 70
        64
  3

 72
        65
 73
         0
 40
0.0
  0
LTYPE
  5
13
100
AcDbSymbolTableRecord
100
AcDbLinetypeTableRecord
  2
CONTINUOUS
 70
        64
  3
Solid line
 72
        65
 73
         0
 40
0.0
  0
ENDTAB
  0
TABLE
  2
LAYER
  5
2
100
AcDbSymbolTable
 70
         9
  0
LAYER
  5
14
100
AcDbSymbolTableRecord
100
AcDbLayerTableRecord
  2
0
 70
         0
 62
         7
  6
CONTINUOUS
  0
LAYER
  5
24
100
AcDbSymbolTableRecord
100
AcDbLayerTableRecord
  2
ASSEMBLY_OUTLINES_TOP
 70
         0
 62
       102
  6
CONTINUOUS
  0
LAYER
  5
25
100
AcDbSymbolTableRecord
100
AcDbLayerTableRecord
  2
ASSEMBLY_REF_DES_TOP
 70
         0
 62
       102
  6
CONTINUOUS
  0
LAYER
  5
26
100
AcDbSymbolTableRecord
100
AcDbLayerTableRecord
  2
BOARD_OUTLINE
 70
         0
 62
        10
  6
CONTINUOUS
  0
LAYER
  5
27
100
AcDbSymbolTableRecord
100
AcDbLayerTableRecord
  2
FIDUCIAL_PADS_TOP
 70
         0
 62
       130
  6
CONTINUOUS
  0
LAYER
  5
28
100
AcDbSymbolTableRecord
100
AcDbLayerTableRecord
  2
MOUNTING_HOLES_LAYER_TOP
 70
         0
 62
        42
  6
CONTINUOUS
  0
LAYER
  5
29
100
AcDbSymbolTableRecord
100
AcDbLayerTableRecord
  2
PART_HOLES_LAYER_TOP
 70
         0
 62
        30
  6
CONTINUOUS
  0
LAYER
  5
2A
100
AcDbSymbolTableRecord
100
AcDbLayerTableRecord
  2
PART_PADS_LAYER_TOP
 70
         0
 62
       150
  6
CONTINUOUS
  0
LAYER
  5
2B
100
AcDbSymbolTableRecord
100
AcDbLayerTableRecord
  2
SOLDERMASK_PADS_TOP
 70
         0
 62
       180
  6
CONTINUOUS
  0
ENDTAB
  0
TABLE
  2
STYLE
  5
3
100
AcDbSymbolTable
 70
         4
  0
STYLE
  5
17
100
AcDbSymbolTableRecord
100
AcDbTextStyleTableRecord
  2
STANDARD
 70
         0
 40
0.0
 41
1.0
 50
0.0
 71
         0
 42
0.0
  3
txt
  4

  0
STYLE
  5
7C
100
AcDbSymbolTableRecord
100
AcDbTextStyleTableRecord
  2
VERIBEST_GERBER_1
 70
         0
 40
0.0
 41
1.0
 50
0.0
 71
         0
 42
0.0
  3
C:\Windows\Fonts\VBest1.ttf
  4

  0
STYLE
  5
81
100
AcDbSymbolTableRecord
100
AcDbTextStyleTableRecord
  2
VERIBEST_GERBER_0
 70
         0
 40
0.0
 41
1.0
 50
0.0
 71
         0
 42
0.0
  3
C:\Windows\Fonts\VBest0.ttf
  4

  0
STYLE
  5
E2
100
AcDbSymbolTableRecord
100
AcDbTextStyleTableRecord
  2
GOST_TYPE_B
 70
         0
 40
0.0
 41
1.0
 50
0.0
 71
         0
 42
0.0
  3
gost_2.ttf
  4

  0
ENDTAB
  0
TABLE
  2
VIEW
  5
5
100
AcDbSymbolTable
 70
         0
  0
ENDTAB
  0
TABLE
  2
UCS
  5
6
100
AcDbSymbolTable
 70
         0
  0
ENDTAB
  0
TABLE
  2
APPID
  5
8
100
AcDbSymbolTable
 70
         1
  0
APPID
  5
16
100
AcDbSymbolTableRecord
100
AcDbRegAppTableRecord
  2
ACAD
 70
         0
  0
ENDTAB
  0
TABLE
  2
DIMSTYLE
  5
9
100
AcDbSymbolTable
 70
         1
  0
DIMSTYLE
105
18
100
AcDbSymbolTableRecord
100
AcDbDimStyleTableRecord
  2
STANDARD
 70
         0
  3

  4

  5

  6

  7

 40
1.0
 41
0.18
 42
0.0625
 43
0.38
 44
0.18
 45
0.0
 46
0.0
 47
0.0
 48
0.0
 71
         0
 72
         0
 73
         1
 74
         1
 75
         0
 76
         0
 77
         0
 78
         0
140
0.18
141
0.09
142
0.0
143
25.4
144
1.0
145
0.0
146
1.0
147
0.09
170
         0
171
         2
172
         0
173
         0
174
         0
175
         0
176
         0
177
         0
178
         0
270
         2
271
         4
272
         4
273
         2
274
         2
275
         0
280
         0
281
         0
282
         0
283
         1
284
         0
285
         0
286
         0
287
         3
288
         0
340
17
  0
ENDTAB
  0
TABLE
  2
BLOCK_RECORD
  5
1
100
AcDbSymbolTable
 70
         0
  0
BLOCK_RECORD
  5
A
100
AcDbSymbolTableRecord
100
AcDbBlockTableRecord
  2
*MODEL_SPACE
  0
BLOCK_RECORD
  5
B
100
AcDbSymbolTableRecord
100
AcDbBlockTableRecord
  2
*PAPER_SPACE
  0
ENDTAB
  0
ENDSEC
  0
SECTION
  2
BLOCKS
  0
BLOCK
  5
D
100
AcDbEntity
  8
0
100
AcDbBlockBegin
  2
*MODEL_SPACE
 70
         0
 10
0.0
 20
0.0
 30
0.0
  3
*MODEL_SPACE
  1

  0
ENDBLK
  5
E
100
AcDbEntity
  8
0
100
AcDbBlockEnd
  0
BLOCK
  5
F
100
AcDbEntity
 67
         1
  8
0
100
AcDbBlockBegin
  2
*PAPER_SPACE
 70
         0
 10
0.0
 20
0.0
 30
0.0
  3
*PAPER_SPACE
  1

  0
ENDBLK
  5
10
100
AcDbEntity
 67
         1
  8
0
100
AcDbBlockEnd
  0
ENDSEC
  0
SECTION
  2
ENTITIES
  0
LWPOLYLINE
  5
2C
100
AcDbEntity
  8
ASSEMBLY_OUTLINES_TOP
100
AcDbPolyline
 90
        2
 70
         0
 43
0.2032
 10
160.5
 20
97.008
 10
160.5
 20
104.408
  0
LWPOLYLINE
  5
2D
100
AcDbEntity
  8
ASSEMBLY_OUTLINES_TOP
100
AcDbPolyline
 90
        2
 70
         0
 43
0.2032
 10
164.5
 20
101.008
 10
164.5
 20
104.408
  0
LWPOLYLINE
  5
2E
100
AcDbEntity
  8
ASSEMBLY_OUTLINES_TOP
100
AcDbPolyline
 90
        2
 70
         0
 43
0.2032
 10
159.9285
 20
103.9
 10
157.6425
 20
103.9
  0
LWPOLYLINE
  5
2F
100
AcDbEntity
  8
ASSEMBLY_OUTLINES_TOP
100
AcDbPolyline
 90
        2
 70
         0
 43
0.2032
 10
165.0715
 20
103.9
 10
167.3575
 20
103.9
  0
LWPOLYLINE
  5
30
100
AcDbEntity
  8
ASSEMBLY_OUTLINES_TOP
100
AcDbPolyline
 90
        3
 70
         1
 10
160.5
 20
103.9
 10
159.357
 20
103.328501
 10
159.357001
 20
104.4715
  0
HATCH
  5
31
100
AcDbEntity
  8
ASSEMBLY_OUTLINES_TOP
100
AcDbHatch
 10
0.0
 20
0.0
 30
0.0
210
0.0
220
0.0
230
1.0
  2
SOLID
 70
         1
 71
         1
 91
        1
 92
        2
 72
         0
 73
         1
 93
        3
 10
160.5
 20
103.90000000000001
 10
159.357
 20
103.328501
 10
159.357001
 20
104.47150000000001
 97
        1
330
30
 75
         0
 76
         1
 98
        1
 10
0.0
 20
0.0
  0
LWPOLYLINE
  5
32
100
AcDbEntity
  8
ASSEMBLY_OUTLINES_TOP
100
AcDbPolyline
 90
        3
 70
         1
 10
164.5
 20
103.9
 10
165.643
 20
104.4715
 10
165.643
 20
103.3285
  0
HATCH
  5
33
100
AcDbEntity
  8
ASSEMBLY_OUTLINES_TOP
100
AcDbHatch
 10
0.0
 20
0.0
 30
0.0
210
0.0
220
0.0
230
1.0
  2
SOLID
 70
         1
 71
         1
 91
        1
 92
        2
 72
         0
 73
         1
 93
        3
 10
164.5
 20
103.90000000000001
 10
165.643
 20
104.47150000000001
 10
165.643
 20
103.32850000000001
 97
        1
330
32
 75
         0
 76
         1
 98
        1
 10
0.0
 20
0.0
  0
LWPOLYLINE
  5
34
100
AcDbEntity
  8
ASSEMBLY_OUTLINES_TOP
100
AcDbPolyline
 90
        2
 70
         0
 43
0.2032
 10
165.008
 20
100.5
 10
169.708
 20
100.5
  0
LWPOLYLINE
  5
35
100
AcDbEntity
  8
ASSEMBLY_OUTLINES_TOP
100
AcDbPolyline
 90
        2
 70
         0
 43
0.2032
 10
161.008
 20
96.5
 10
169.708
 20
96.5
  0
LWPOLYLINE
  5
36
100
AcDbEntity
  8
ASSEMBLY_OUTLINES_TOP
100
AcDbPolyline
 90
        2
 70
         0
 43
0.2032
 10
169.2
 20
101.0715
 10
169.2
 20
103.3575
  0
LWPOLYLINE
  5
37
100
AcDbEntity
  8
ASSEMBLY_OUTLINES_TOP
100
AcDbPolyline
 90
        2
 70
         0
 43
0.2032
 10
169.2
 20
95.9285
 10
169.2
 20
93.6425
  0
LWPOLYLINE
  5
38
100
AcDbEntity
  8
ASSEMBLY_OUTLINES_TOP
100
AcDbPolyline
 90
        3
 70
         1
 10
169.2
 20
100.5
 10
168.6285
 20
101.643
 10
169.7715
 20
101.643
  0
HATCH
  5
39
100
AcDbEntity
  8
ASSEMBLY_OUTLINES_TOP
100
AcDbHatch
 10
0.0
 20
0.0
 30
0.0
210
0.0
220
0.0
230
1.0
  2
SOLID
 70
         1
 71
         1
 91
        1
 92
        2
 72
         0
 73
         1
 93
        3
 10
169.19999999999999
 20
100.5
 10
168.6285
 20
101.643
 10
169.7715
 20
101.643
 97
        1
330
38
 75
         0
 76
         1
 98
        1
 10
0.0
 20
0.0
  0
LWPOLYLINE
  5
3A
100
AcDbEntity
  8
ASSEMBLY_OUTLINES_TOP
100
AcDbPolyline
 90
        3
 70
         1
 10
169.2
 20
96.5
 10
169.771499
 20
95.357
 10
168.6285
 20
95.357001
  0
HATCH
  5
3B
100
AcDbEntity
  8
ASSEMBLY_OUTLINES_TOP
100
AcDbHatch
 10
0.0
 20
0.0
 30
0.0
210
0.0
220
0.0
230
1.0
  2
SOLID
 70
         1
 71
         1
 91
        1
 92
        2
 72
         0
 73
         1
 93
        3
 10
169.19999999999999
 20
96.5
 10
169.77149900000001
 20
95.356999999999999
 10
168.6285
 20
95.357000999999997
 97
        1
330
3A
 75
         0
 76
         1
 98
        1
 10
0.0
 20
0.0
  0
LWPOLYLINE
  5
3C
100
AcDbEntity
  8
ASSEMBLY_OUTLINES_TOP
100
AcDbPolyline
 90
        2
 70
         0
 43
0.2032
 10
161.008
 20
-3.5
 10
169.608
 20
-3.5
  0
LWPOLYLINE
  5
3D
100
AcDbEntity
  8
ASSEMBLY_OUTLINES_TOP
100
AcDbPolyline
 90
        2
 70
         0
 43
0.2032
 10
165.008
 20
-7.5
 10
169.608
 20
-7.5
  0
LWPOLYLINE
  5
3E
100
AcDbEntity
  8
ASSEMBLY_OUTLINES_TOP
100
AcDbPolyline
 90
        2
 70
         0
 43
0.2032
 10
169.1
 20
-2.9285
 10
169.1
 20
-0.6425
  0
LWPOLYLINE
  5
3F
100
AcDbEntity
  8
ASSEMBLY_OUTLINES_TOP
100
AcDbPolyline
 90
        2
 70
         0
 43
0.2032
 10
169.1
 20
-8.0715
 10
169.1
 20
-10.3575
  0
LWPOLYLINE
  5
40
100
AcDbEntity
  8
ASSEMBLY_OUTLINES_TOP
100
AcDbPolyline
 90
        3
 70
         1
 10
169.1
 20
-3.5
 10
168.5285
 20
-2.357
 10
169.6715
 20
-2.357
  0
HATCH
  5
41
100
AcDbEntity
  8
ASSEMBLY_OUTLINES_TOP
100
AcDbHatch
 10
0.0
 20
0.0
 30
0.0
210
0.0
220
0.0
230
1.0
  2
SOLID
 70
         1
 71
         1
 91
        1
 92
        2
 72
         0
 73
         1
 93
        3
 10
169.09999999999999
 20
-3.5
 10
168.52850000000001
 20
-2.3570000000000002
 10
169.67150000000001
 20
-2.3570000000000002
 97
        1
330
40
 75
         0
 76
         1
 98
        1
 10
0.0
 20
0.0
  0
LWPOLYLINE
  5
42
100
AcDbEntity
  8
ASSEMBLY_OUTLINES_TOP
100
AcDbPolyline
 90
        3
 70
         1
 10
169.1
 20
-7.5
 10
169.671499
 20
-8.643
 10
168.5285
 20
-8.642999
  0
HATCH
  5
43
100
AcDbEntity
  8
ASSEMBLY_OUTLINES_TOP
100
AcDbHatch
 10
0.0
 20
0.0
 30
0.0
210
0.0
220
0.0
230
1.0
  2
SOLID
 70
         1
 71
         1
 91
        1
 92
        2
 72
         0
 73
         1
 93
        3
 10
169.09999999999999
 20
-7.5
 10
169.67149900000001
 20
-8.6430000000000007
 10
168.52850000000001
 20
-8.6429989999999997
 97
        1
330
42
 75
         0
 76
         1
 98
        1
 10
0.0
 20
0.0
  0
LWPOLYLINE
  5
44
100
AcDbEntity
  8
ASSEMBLY_OUTLINES_TOP
100
AcDbPolyline
 90
        2
 70
         0
 43
0.2032
 10
160.5
 20
-4.008
 10
160.5
 20
-12.025806
  0
LWPOLYLINE
  5
45
100
AcDbEntity
  8
ASSEMBLY_OUTLINES_TOP
100
AcDbPolyline
 90
        2
 70
         0
 43
0.2032
 10
164.5
 20
-8.008
 10
164.5
 20
-12.025806
  0
LWPOLYLINE
  5
46
100
AcDbEntity
  8
ASSEMBLY_OUTLINES_TOP
100
AcDbPolyline
 90
        2
 70
         0
 43
0.2032
 10
159.9285
 20
-11.517806
 10
157.6425
 20
-11.517806
  0
LWPOLYLINE
  5
47
100
AcDbEntity
  8
ASSEMBLY_OUTLINES_TOP
100
AcDbPolyline
 90
        2
 70
         0
 43
0.2032
 10
165.0715
 20
-11.517806
 10
167.3575
 20
-11.517806
  0
LWPOLYLINE
  5
48
100
AcDbEntity
  8
ASSEMBLY_OUTLINES_TOP
100
AcDbPolyline
 90
        3
 70
         1
 10
160.5
 20
-11.517806
 10
159.357
 20
-12.089305
 10
159.357001
 20
-10.946306
  0
HATCH
  5
49
100
AcDbEntity
  8
ASSEMBLY_OUTLINES_TOP
100
AcDbHatch
 10
0.0
 20
0.0
 30
0.0
210
0.0
220
0.0
230
1.0
  2
SOLID
 70
         1
 71
         1
 91
        1
 92
        2
 72
         0
 73
         1
 93
        3
 10
160.5
 20
-11.517806
 10
159.357
 20
-12.089305
 10
159.357001
 20
-10.946306
 97
        1
330
48
 75
         0
 76
         1
 98
        1
 10
0.0
 20
0.0
  0
LWPOLYLINE
  5
4A
100
AcDbEntity
  8
ASSEMBLY_OUTLINES_TOP
100
AcDbPolyline
 90
        3
 70
         1
 10
164.5
 20
-11.517806
 10
165.643
 20
-10.946306
 10
165.643
 20
-12.089306
  0
HATCH
  5
4B
100
AcDbEntity
  8
ASSEMBLY_OUTLINES_TOP
100
AcDbHatch
 10
0.0
 20
0.0
 30
0.0
210
0.0
220
0.0
230
1.0
  2
SOLID
 70
         1
 71
         1
 91
        1
 92
        2
 72
         0
 73
         1
 93
        3
 10
164.5
 20
-11.517806
 10
165.643
 20
-10.946306
 10
165.643
 20
-12.089306000000001
 97
        1
330
4A
 75
         0
 76
         1
 98
        1
 10
0.0
 20
0.0
  0
LWPOLYLINE
  5
4C
100
AcDbEntity
  8
ASSEMBLY_OUTLINES_TOP
100
AcDbPolyline
 90
        2
 70
         0
 43
0.2032
 10
78.5
 20
101.008
 10
78.5
 20
108.508
  0
LWPOLYLINE
  5
4D
100
AcDbEntity
  8
ASSEMBLY_OUTLINES_TOP
100
AcDbPolyline
 90
        2
 70
         0
 43
0.2032
 10
164.5
 20
101.008
 10
164.5
 20
108.508
  0
LWPOLYLINE
  5
4E
100
AcDbEntity
  8
ASSEMBLY_OUTLINES_TOP
100
AcDbPolyline
 90
        2
 70
         0
 43
0.2032
 10
79.0715
 20
108.0
 10
118.753403
 20
108.0
  0
LWPOLYLINE
  5
4F
100
AcDbEntity
  8
ASSEMBLY_OUTLINES_TOP
100
AcDbPolyline
 90
        2
 70
         0
 43
0.2032
 10
124.246597
 20
108.0
 10
163.9285
 20
108.0
  0
LWPOLYLINE
  5
50
100
AcDbEntity
  8
ASSEMBLY_OUTLINES_TOP
100
AcDbPolyline
 90
        3
 70
         1
 10
78.5
 20
108.0
 10
79.643
 20
108.5715
 10
79.643
 20
107.4285
  0
HATCH
  5
51
100
AcDbEntity
  8
ASSEMBLY_OUTLINES_TOP
100
AcDbHatch
 10
0.0
 20
0.0
 30
0.0
210
0.0
220
0.0
230
1.0
  2
SOLID
 70
         1
 71
         1
 91
        1
 92
        2
 72
         0
 73
         1
 93
        3
 10
78.5
 20
108.0
 10
79.643000000000001
 20
108.5715
 10
79.643000000000001
 20
107.4285
 97
        1
330
50
 75
         0
 76
         1
 98
        1
 10
0.0
 20
0.0
  0
LWPOLYLINE
  5
52
100
AcDbEntity
  8
ASSEMBLY_OUTLINES_TOP
100
AcDbPolyline
 90
        3
 70
         1
 10
164.5
 20
108.0
 10
163.357
 20
107.428501
 10
163.357001
 20
108.5715
  0
HATCH
  5
53
100
AcDbEntity
  8
ASSEMBLY_OUTLINES_TOP
100
AcDbHatch
 10
0.0
 20
0.0
 30
0.0
210
0.0
220
0.0
230
1.0
  2
SOLID
 70
         1
 71
         1
 91
        1
 92
        2
 72
         0
 73
         1
 93
        3
 10
164.5
 20
108.0
 10
163.357
 20
107.428501
 10
163.357001
 20
108.5715
 97
        1
330
52
 75
         0
 76
         1
 98
        1
 10
0.0
 20
0.0
  0
LWPOLYLINE
  5
54
100
AcDbEntity
  8
ASSEMBLY_OUTLINES_TOP
100
AcDbPolyline
 90
        2
 70
         0
 43
0.2032
 10
165.008
 20
100.5
 10
178.508
 20
100.5
  0
LWPOLYLINE
  5
55
100
AcDbEntity
  8
ASSEMBLY_OUTLINES_TOP
100
AcDbPolyline
 90
        2
 70
         0
 43
0.2032
 10
165.008
 20
-7.5
 10
178.508
 20
-7.5
  0
LWPOLYLINE
  5
56
100
AcDbEntity
  8
ASSEMBLY_OUTLINES_TOP
100
AcDbPolyline
 90
        2
 70
         0
 43
0.2032
 10
178.0
 20
99.9285
 10
178.0
 20
49.853339
  0
LWPOLYLINE
  5
57
100
AcDbEntity
  8
ASSEMBLY_OUTLINES_TOP
100
AcDbPolyline
 90
        2
 70
         0
 43
0.2032
 10
178.0
 20
43.14666
 10
178.0
 20
-6.9285
  0
LWPOLYLINE
  5
58
100
AcDbEntity
  8
ASSEMBLY_OUTLINES_TOP
100
AcDbPolyline
 90
        3
 70
         1
 10
178.0
 20
100.5
 10
178.571499
 20
99.357
 10
177.4285
 20
99.357001
  0
HATCH
  5
59
100
AcDbEntity
  8
ASSEMBLY_OUTLINES_TOP
100
AcDbHatch
 10
0.0
 20
0.0
 30
0.0
210
0.0
220
0.0
230
1.0
  2
SOLID
 70
         1
 71
         1
 91
        1
 92
        2
 72
         0
 73
         1
 93
        3
 10
178.0
 20
100.5
 10
178.57149899999999
 20
99.356999999999999
 10
177.42850000000001
 20
99.357000999999997
 97
        1
330
58
 75
         0
 76
         1
 98
        1
 10
0.0
 20
0.0
  0
LWPOLYLINE
  5
5A
100
AcDbEntity
  8
ASSEMBLY_OUTLINES_TOP
100
AcDbPolyline
 90
        3
 70
         1
 10
178.0
 20
-7.5
 10
177.4285
 20
-6.357
 10
178.5715
 20
-6.357
  0
HATCH
  5
5B
100
AcDbEntity
  8
ASSEMBLY_OUTLINES_TOP
100
AcDbHatch
 10
0.0
 20
0.0
 30
0.0
210
0.0
220
0.0
230
1.0
  2
SOLID
 70
         1
 71
         1
 91
        1
 92
        2
 72
         0
 73
         1
 93
        3
 10
178.0
 20
-7.5
 10
177.42850000000001
 20
-6.3570000000000002
 10
178.57149999999999
 20
-6.3570000000000002
 97
        1
330
5A
 75
         0
 76
         1
 98
        1
 10
0.0
 20
0.0
  0
LWPOLYLINE
  5
5C
100
AcDbEntity
  8
ASSEMBLY_OUTLINES_TOP
100
AcDbPolyline
 90
        2
 70
         0
 43
0.2032
 10
78.5
 20
-8.008
 10
78.5
 20
-11.825716
  0
LWPOLYLINE
  5
5D
100
AcDbEntity
  8
ASSEMBLY_OUTLINES_TOP
100
AcDbPolyline
 90
        2
 70
         0
 43
0.2032
 10
82.5
 20
-4.008
 10
82.5
 20
-11.825716
  0
LWPOLYLINE
  5
5E
100
AcDbEntity
  8
ASSEMBLY_OUTLINES_TOP
100
AcDbPolyline
 90
        2
 70
         0
 43
0.2032
 10
77.9285
 20
-11.317716
 10
75.6425
 20
-11.317716
  0
LWPOLYLINE
  5
5F
100
AcDbEntity
  8
ASSEMBLY_OUTLINES_TOP
100
AcDbPolyline
 90
        2
 70
         0
 43
0.2032
 10
83.0715
 20
-11.317716
 10
85.3575
 20
-11.317716
  0
LWPOLYLINE
  5
60
100
AcDbEntity
  8
ASSEMBLY_OUTLINES_TOP
100
AcDbPolyline
 90
        3
 70
         1
 10
78.5
 20
-11.317716
 10
77.357
 20
-11.889215
 10
77.357001
 20
-10.746216
  0
HATCH
  5
61
100
AcDbEntity
  8
ASSEMBLY_OUTLINES_TOP
100
AcDbHatch
 10
0.0
 20
0.0
 30
0.0
210
0.0
220
0.0
230
1.0
  2
SOLID
 70
         1
 71
         1
 91
        1
 92
        2
 72
         0
 73
         1
 93
        3
 10
78.5
 20
-11.317716000000001
 10
77.356999999999999
 20
-11.889215
 10
77.357000999999997
 20
-10.746216
 97
        1
330
60
 75
         0
 76
         1
 98
        1
 10
0.0
 20
0.0
  0
LWPOLYLINE
  5
62
100
AcDbEntity
  8
ASSEMBLY_OUTLINES_TOP
100
AcDbPolyline
 90
        3
 70
         1
 10
82.5
 20
-11.317716
 10
83.643
 20
-10.746216
 10
83.643
 20
-11.889216
  0
HATCH
  5
63
100
AcDbEntity
  8
ASSEMBLY_OUTLINES_TOP
100
AcDbHatch
 10
0.0
 20
0.0
 30
0.0
210
0.0
220
0.0
230
1.0
  2
SOLID
 70
         1
 71
         1
 91
        1
 92
        2
 72
         0
 73
         1
 93
        3
 10
82.5
 20
-11.317716000000001
 10
83.643000000000001
 20
-10.746216
 10
83.643000000000001
 20
-11.889215999999999
 97
        1
330
62
 75
         0
 76
         1
 98
        1
 10
0.0
 20
0.0
  0
LWPOLYLINE
  5
64
100
AcDbEntity
  8
ASSEMBLY_OUTLINES_TOP
100
AcDbPolyline
 90
        2
 70
         0
 43
0.2032
 10
81.992
 20
-3.5
 10
75.15222
 20
-3.5
  0
LWPOLYLINE
  5
65
100
AcDbEntity
  8
ASSEMBLY_OUTLINES_TOP
100
AcDbPolyline
 90
        2
 70
         0
 43
0.2032
 10
77.992
 20
-7.5
 10
75.15222
 20
-7.5
  0
LWPOLYLINE
  5
66
100
AcDbEntity
  8
ASSEMBLY_OUTLINES_TOP
100
AcDbPolyline
 90
        2
 70
         0
 43
0.2032
 10
75.66022
 20
-2.9285
 10
75.66022
 20
-0.6425
  0
LWPOLYLINE
  5
67
100
AcDbEntity
  8
ASSEMBLY_OUTLINES_TOP
100
AcDbPolyline
 90
        2
 70
         0
 43
0.2032
 10
75.66022
 20
-8.0715
 10
75.66022
 20
-10.3575
  0
LWPOLYLINE
  5
68
100
AcDbEntity
  8
ASSEMBLY_OUTLINES_TOP
100
AcDbPolyline
 90
        3
 70
         1
 10
75.66022
 20
-3.5
 10
75.08872
 20
-2.357
 10
76.23172
 20
-2.357
  0
HATCH
  5
69
100
AcDbEntity
  8
ASSEMBLY_OUTLINES_TOP
100
AcDbHatch
 10
0.0
 20
0.0
 30
0.0
210
0.0
220
0.0
230
1.0
  2
SOLID
 70
         1
 71
         1
 91
        1
 92
        2
 72
         0
 73
         1
 93
        3
 10
75.660219999999995
 20
-3.5
 10
75.088719999999995
 20
-2.3570000000000002
 10
76.231719999999996
 20
-2.3570000000000002
 97
        1
330
68
 75
         0
 76
         1
 98
        1
 10
0.0
 20
0.0
  0
LWPOLYLINE
  5
6A
100
AcDbEntity
  8
ASSEMBLY_OUTLINES_TOP
100
AcDbPolyline
 90
        3
 70
         1
 10
75.66022
 20
-7.5
 10
76.231719
 20
-8.643
 10
75.08872
 20
-8.642999
  0
HATCH
  5
6B
100
AcDbEntity
  8
ASSEMBLY_OUTLINES_TOP
100
AcDbHatch
 10
0.0
 20
0.0
 30
0.0
210
0.0
220
0.0
230
1.0
  2
SOLID
 70
         1
 71
         1
 91
        1
 92
        2
 72
         0
 73
         1
 93
        3
 10
75.660219999999995
 20
-7.5
 10
76.231718999999998
 20
-8.6430000000000007
 10
75.088719999999995
 20
-8.6429989999999997
 97
        1
330
6A
 75
         0
 76
         1
 98
        1
 10
0.0
 20
0.0
  0
LWPOLYLINE
  5
6C
100
AcDbEntity
  8
ASSEMBLY_OUTLINES_TOP
100
AcDbPolyline
 90
        2
 70
         0
 43
0.2032
 10
77.992
 20
100.5
 10
75.392
 20
100.5
  0
LWPOLYLINE
  5
6D
100
AcDbEntity
  8
ASSEMBLY_OUTLINES_TOP
100
AcDbPolyline
 90
        2
 70
         0
 43
0.2032
 10
85.492
 20
90.0
 10
75.392
 20
90.0
  0
LWPOLYLINE
  5
6E
100
AcDbEntity
  8
ASSEMBLY_OUTLINES_TOP
100
AcDbPolyline
 90
        2
 70
         0
 43
0.2032
 10
75.9
 20
99.9285
 10
75.9
 20
99.03606
  0
LWPOLYLINE
  5
6F
100
AcDbEntity
  8
ASSEMBLY_OUTLINES_TOP
100
AcDbPolyline
 90
        2
 70
         0
 43
0.2032
 10
75.9
 20
91.46394
 10
75.9
 20
90.5715
  0
LWPOLYLINE
  5
70
100
AcDbEntity
  8
ASSEMBLY_OUTLINES_TOP
100
AcDbPolyline
 90
        3
 70
         1
 10
75.9
 20
100.5
 10
76.471499
 20
99.357
 10
75.3285
 20
99.357001
  0
HATCH
  5
71
100
AcDbEntity
  8
ASSEMBLY_OUTLINES_TOP
100
AcDbHatch
 10
0.0
 20
0.0
 30
0.0
210
0.0
220
0.0
230
1.0
  2
SOLID
 70
         1
 71
         1
 91
        1
 92
        2
 72
         0
 73
         1
 93
        3
 10
75.900000000000006
 20
100.5
 10
76.471498999999994
 20
99.356999999999999
 10
75.328500000000005
 20
99.357000999999997
 97
        1
330
70
 75
         0
 76
         1
 98
        1
 10
0.0
 20
0.0
  0
LWPOLYLINE
  5
72
100
AcDbEntity
  8
ASSEMBLY_OUTLINES_TOP
100
AcDbPolyline
 90
        3
 70
         1
 10
75.9
 20
90.0
 10
75.3285
 20
91.143
 10
76.4715
 20
91.143
  0
HATCH
  5
73
100
AcDbEntity
  8
ASSEMBLY_OUTLINES_TOP
100
AcDbHatch
 10
0.0
 20
0.0
 30
0.0
210
0.0
220
0.0
230
1.0
  2
SOLID
 70
         1
 71
         1
 91
        1
 92
        2
 72
         0
 73
         1
 93
        3
 10
75.900000000000006
 20
90.0
 10
75.328500000000005
 20
91.143000000000001
 10
76.471500000000006
 20
91.143000000000001
 97
        1
330
72
 75
         0
 76
         1
 98
        1
 10
0.0
 20
0.0
  0
LWPOLYLINE
  5
74
100
AcDbEntity
  8
ASSEMBLY_OUTLINES_TOP
100
AcDbPolyline
 90
        2
 70
         0
 43
0.2032
 10
78.5
 20
101.008
 10
78.5
 20
104.888711
  0
LWPOLYLINE
  5
75
100
AcDbEntity
  8
ASSEMBLY_OUTLINES_TOP
100
AcDbPolyline
 90
        2
 70
         0
 43
0.2032
 10
86.0
 20
90.508
 10
86.0
 20
104.888711
  0
LWPOLYLINE
  5
76
100
AcDbEntity
  8
ASSEMBLY_OUTLINES_TOP
100
AcDbPolyline
 90
        2
 70
         0
 43
0.2032
 10
77.9285
 20
104.380711
 10
75.6425
 20
104.380711
  0
LWPOLYLINE
  5
77
100
AcDbEntity
  8
ASSEMBLY_OUTLINES_TOP
100
AcDbPolyline
 90
        2
 70
         0
 43
0.2032
 10
86.5715
 20
104.380711
 10
88.8575
 20
104.380711
  0
LWPOLYLINE
  5
78
100
AcDbEntity
  8
ASSEMBLY_OUTLINES_TOP
100
AcDbPolyline
 90
        3
 70
         1
 10
78.5
 20
104.380711
 10
77.357
 20
103.809212
 10
77.357001
 20
104.952211
  0
HATCH
  5
79
100
AcDbEntity
  8
ASSEMBLY_OUTLINES_TOP
100
AcDbHatch
 10
0.0
 20
0.0
 30
0.0
210
0.0
220
0.0
230
1.0
  2
SOLID
 70
         1
 71
         1
 91
        1
 92
        2
 72
         0
 73
         1
 93
        3
 10
78.5
 20
104.38071100000001
 10
77.356999999999999
 20
103.809212
 10
77.357000999999997
 20
104.95221100000001
 97
        1
330
78
 75
         0
 76
         1
 98
        1
 10
0.0
 20
0.0
  0
LWPOLYLINE
  5
7A
100
AcDbEntity
  8
ASSEMBLY_OUTLINES_TOP
100
AcDbPolyline
 90
        3
 70
         1
 10
86.0
 20
104.380711
 10
87.143
 20
104.952211
 10
87.143
 20
103.809211
  0
HATCH
  5
7B
100
AcDbEntity
  8
ASSEMBLY_OUTLINES_TOP
100
AcDbHatch
 10
0.0
 20
0.0
 30
0.0
210
0.0
220
0.0
230
1.0
  2
SOLID
 70
         1
 71
         1
 91
        1
 92
        2
 72
         0
 73
         1
 93
        3
 10
86.0
 20
104.38071100000001
 10
87.143000000000001
 20
104.95221100000001
 10
87.143000000000001
 20
103.809211
 97
        1
330
7A
 75
         0
 76
         1
 98
        1
 10
0.0
 20
0.0
  0
TEXT
  5
7D
100
AcDbEntity
  8
ASSEMBLY_OUTLINES_TOP
100
AcDbText
 10
153.823896
 20
103.265
 30
0.0
 40
1.27
  1
4mm
  7
VERIBEST_GERBER_1
 72
         1
 11
155.621581
 21
103.9
 31
0.0
100
AcDbText
 73
         2
  0
TEXT
  5
7E
100
AcDbEntity
  8
ASSEMBLY_OUTLINES_TOP
100
AcDbText
 10
169.835
 20
103.580734
 30
0.0
 40
1.27
  1
4mm
 50
90.0
  7
VERIBEST_GERBER_1
 72
         1
 11
169.2
 21
105.378419
 31
0.0
100
AcDbText
 73
         2
  0
TEXT
  5
7F
100
AcDbEntity
  8
ASSEMBLY_OUTLINES_TOP
100
AcDbText
 10
169.735
 20
-0.419266
 30
0.0
 40
1.27
  1
4mm
 50
90.0
  7
VERIBEST_GERBER_1
 72
         1
 11
169.1
 21
1.378419
 31
0.0
100
AcDbText
 73
         2
  0
TEXT
  5
80
100
AcDbEntity
  8
ASSEMBLY_OUTLINES_TOP
100
AcDbText
 10
153.823896
 20
-12.152806
 30
0.0
 40
1.27
  1
4mm
  7
VERIBEST_GERBER_1
 72
         1
 11
155.621581
 21
-11.517806
 31
0.0
100
AcDbText
 73
         2
  0
TEXT
  5
82
100
AcDbEntity
  8
ASSEMBLY_OUTLINES_TOP
100
AcDbText
 10
119.107955
 20
107.365
 30
0.0
 40
1.27
  1
86mm
  7
VERIBEST_GERBER_0
 72
         1
 11
121.5
 21
108.0
 31
0.0
100
AcDbText
 73
         2
  0
TEXT
  5
83
100
AcDbEntity
  8
ASSEMBLY_OUTLINES_TOP
100
AcDbText
 10
178.635
 20
43.530106
 30
0.0
 40
1.27
  1
108mm
 50
90.0
  7
VERIBEST_GERBER_0
 72
         1
 11
178.0
 21
46.500001
 31
0.0
100
AcDbText
 73
         2
  0
TEXT
  5
84
100
AcDbEntity
  8
ASSEMBLY_OUTLINES_TOP
100
AcDbText
 10
71.823896
 20
-11.952716
 30
0.0
 40
1.27
  1
4mm
  7
VERIBEST_GERBER_1
 72
         1
 11
73.621581
 21
-11.317716
 31
0.0
100
AcDbText
 73
         2
  0
TEXT
  5
85
100
AcDbEntity
  8
ASSEMBLY_OUTLINES_TOP
100
AcDbText
 10
76.29522
 20
-0.419266
 30
0.0
 40
1.27
  1
4mm
 50
90.0
  7
VERIBEST_GERBER_1
 72
         1
 11
75.66022
 21
1.378419
 31
0.0
100
AcDbText
 73
         2
  0
TEXT
  5
86
100
AcDbEntity
  8
ASSEMBLY_OUTLINES_TOP
100
AcDbText
 10
76.535
 20
91.86799
 30
0.0
 40
1.27
  1
10.5mm
 50
90.0
  7
VERIBEST_GERBER_1
 72
         1
 11
75.9
 21
95.25
 31
0.0
100
AcDbText
 73
         2
  0
TEXT
  5
87
100
AcDbEntity
  8
ASSEMBLY_OUTLINES_TOP
100
AcDbText
 10
69.662991
 20
103.745711
 30
0.0
 40
1.27
  1
7.5mm
  7
VERIBEST_GERBER_1
 72
         1
 11
72.514776
 21
104.380711
 31
0.0
100
AcDbText
 73
         2
  0
LWPOLYLINE
  5
88
100
AcDbEntity
  8
ASSEMBLY_OUTLINES_TOP
100
AcDbPolyline
 90
        4
 70
         1
 10
164.51053
 20
23.99604
 10
164.51053
 20
39.99604
 10
170.41053
 20
39.99604
 10
170.41053
 20
23.99604
  0
LWPOLYLINE
  5
89
100
AcDbEntity
  8
ASSEMBLY_OUTLINES_TOP
100
AcDbPolyline
 90
        4
 70
         1
 43
0.15
 10
152.11053
 20
16.59604
 10
152.11053
 20
47.39604
 10
164.51053
 20
47.39604
 10
164.51053
 20
16.59604
  0
LWPOLYLINE
  5
8A
100
AcDbEntity
  8
ASSEMBLY_OUTLINES_TOP
100
AcDbPolyline
 90
        2
 70
         0
 43
0.15
 10
147.3
 20
66.8
 10
147.3
 20
70.6
  0
LWPOLYLINE
  5
8B
100
AcDbEntity
  8
ASSEMBLY_OUTLINES_TOP
100
AcDbPolyline
 90
        2
 70
         0
 43
0.15
 10
147.4
 20
66.8
 10
147.4
 20
70.6
  0
LWPOLYLINE
  5
8C
100
AcDbEntity
  8
ASSEMBLY_OUTLINES_TOP
100
AcDbPolyline
 90
        2
 70
         0
 43
0.15
 10
147.5
 20
66.8
 10
147.5
 20
70.6
  0
LWPOLYLINE
  5
8D
100
AcDbEntity
  8
ASSEMBLY_OUTLINES_TOP
100
AcDbPolyline
 90
        2
 70
         0
 43
0.15
 10
147.6
 20
66.8
 10
147.6
 20
70.6
  0
LWPOLYLINE
  5
8E
100
AcDbEntity
  8
ASSEMBLY_OUTLINES_TOP
100
AcDbPolyline
 90
        2
 70
         0
 43
0.15
 10
147.7
 20
66.8
 10
147.7
 20
70.6
  0
LWPOLYLINE
  5
8F
100
AcDbEntity
  8
ASSEMBLY_OUTLINES_TOP
100
AcDbPolyline
 90
        2
 70
         0
 43
0.15
 10
147.8
 20
66.8
 10
147.8
 20
70.6
  0
LWPOLYLINE
  5
90
100
AcDbEntity
  8
ASSEMBLY_OUTLINES_TOP
100
AcDbPolyline
 90
        2
 70
         0
 43
0.15
 10
147.9
 20
66.8
 10
147.9
 20
70.6
  0
LWPOLYLINE
  5
91
100
AcDbEntity
  8
ASSEMBLY_OUTLINES_TOP
100
AcDbPolyline
 90
        2
 70
         0
 43
0.15
 10
148.0
 20
66.8
 10
148.0
 20
70.6
  0
LWPOLYLINE
  5
92
100
AcDbEntity
  8
ASSEMBLY_OUTLINES_TOP
100
AcDbPolyline
 90
        4
 70
         1
 43
0.15
 10
147.2
 20
66.8
 10
147.2
 20
70.6
 10
152.8
 20
70.6
 10
152.8
 20
66.8
  0
LWPOLYLINE
  5
93
100
AcDbEntity
  8
ASSEMBLY_OUTLINES_TOP
100
AcDbPolyline
 90
        4
 70
         1
 43
0.15
 10
98.23
 20
35.09
 10
98.23
 20
42.59
 10
100.77
 20
42.59
 10
100.77
 20
35.09
  0
LWPOLYLINE
  5
94
100
AcDbEntity
  8
ASSEMBLY_OUTLINES_TOP
100
AcDbPolyline
 90
        4
 70
         1
 10
110.35
 20
-1.07
 10
110.35
 20
-0.57
 10
115.6
 20
-0.57
 10
115.6
 20
-1.07
  0
LWPOLYLINE
  5
95
100
AcDbEntity
  8
ASSEMBLY_OUTLINES_TOP
100
AcDbPolyline
 90
        4
 70
         1
 43
0.15
 10
85.47
 20
-7.57
 10
85.47
 20
-0.57
 10
140.47
 20
-0.57
 10
140.47
 20
-7.57
  0
LWPOLYLINE
  5
96
100
AcDbEntity
  8
ASSEMBLY_OUTLINES_TOP
100
AcDbPolyline
 90
        4
 70
         1
 43
0.15
 10
85.47
 20
-7.55
 10
85.47
 20
-0.57
 10
140.47
 20
-0.57
 10
140.47
 20
-7.55
  0
LWPOLYLINE
  5
97
100
AcDbEntity
  8
ASSEMBLY_OUTLINES_TOP
100
AcDbPolyline
 90
        4
 70
         1
 43
0.15
 10
151.532315
 20
84.056537
 10
151.532315
 20
93.056537
 10
166.032315
 20
93.056537
 10
166.032315
 20
84.056537
  0
LWPOLYLINE
  5
98
100
AcDbEntity
  8
ASSEMBLY_OUTLINES_TOP
100
AcDbPolyline
 90
        6
 70
         1
 43
0.15
 10
142.45
 20
77.8
 10
144.1
 20
76.15
 10
144.1
 20
71.2
 10
137.5
 20
71.2
 10
137.5
 20
76.15
 10
139.15
 20
77.8
  0
LWPOLYLINE
  5
99
100
AcDbEntity
  8
ASSEMBLY_OUTLINES_TOP
100
AcDbPolyline
 90
        4
 70
         1
 43
0.15
 10
82.987583
 20
93.555611
 10
82.987583
 20
100.555611
 10
137.987583
 20
100.555611
 10
137.987583
 20
93.555611
  0
LWPOLYLINE
  5
9A
100
AcDbEntity
  8
ASSEMBLY_OUTLINES_TOP
100
AcDbPolyline
 90
        4
 70
         1
 43
0.15
 10
82.987583
 20
93.555611
 10
82.987583
 20
100.535611
 10
137.987583
 20
100.535611
 10
137.987583
 20
93.555611
  0
LWPOLYLINE
  5
9B
100
AcDbEntity
  8
ASSEMBLY_OUTLINES_TOP
100
AcDbPolyline
 90
        4
 70
         1
 43
0.15
 10
107.857583
 20
93.555611
 10
107.857583
 20
94.055611
 10
113.107583
 20
94.055611
 10
113.107583
 20
93.555611
  0
LWPOLYLINE
  5
9C
100
AcDbEntity
  8
ASSEMBLY_OUTLINES_TOP
100
AcDbPolyline
 90
        4
 70
         1
 43
0.15
 10
143.01
 20
55.93
 10
143.01
 20
58.47
 10
150.51
 20
58.47
 10
150.51
 20
55.93
  0
LWPOLYLINE
  5
9D
100
AcDbEntity
  8
ASSEMBLY_OUTLINES_TOP
100
AcDbPolyline
 90
        4
 70
         1
 43
0.15
 10
134.35
 20
37.2
 10
134.35
 20
42.2
 10
140.65
 20
42.2
 10
140.65
 20
37.2
  0
LWPOLYLINE
  5
9E
100
AcDbEntity
  8
ASSEMBLY_OUTLINES_TOP
100
AcDbPolyline
 90
        8
 70
         0
 43
0.15
 10
99.0
 20
18.8
 42
-2.549150321
 10
88.8
 20
18.8
 10
86.9
 20
18.8
 10
86.9
 20
20.8
 10
100.9
 20
20.8
 10
100.9
 20
18.8
 10
99.0
 20
18.8
 10
99.1
 20
18.8
  0
LWPOLYLINE
  5
9F
100
AcDbEntity
  8
ASSEMBLY_OUTLINES_TOP
100
AcDbPolyline
 90
        4
 70
         1
 43
0.15
 10
140.65
 20
-0.1
 10
140.65
 20
15.9
 10
166.05
 20
15.9
 10
166.05
 20
-0.1
  0
LWPOLYLINE
  5
A0
100
AcDbEntity
  8
ASSEMBLY_OUTLINES_TOP
100
AcDbPolyline
 90
        4
 70
         1
 43
0.15
 10
120.277944
 20
8.612796
 10
120.277944
 20
15.612796
 10
127.277944
 20
15.612796
 10
127.277944
 20
8.612796
  0
LWPOLYLINE
  5
A1
100
AcDbEntity
  8
ASSEMBLY_OUTLINES_TOP
100
AcDbPolyline
 90
        2
 70
         1
 43
0.15
 10
125.777944
 20
14.612796
 42
-1.0
 10
126.777944
 20
14.612796
 42
-1.0
  0
LWPOLYLINE
  5
A2
100
AcDbEntity
  8
ASSEMBLY_OUTLINES_TOP
100
AcDbPolyline
 90
        2
 70
         0
 43
0.15
 10
101.628006
 20
49.965354
 10
101.628006
 20
42.465354
  0
LWPOLYLINE
  5
A3
100
AcDbEntity
  8
ASSEMBLY_OUTLINES_TOP
100
AcDbPolyline
 90
        2
 70
         0
 43
0.15
 10
105.628006
 20
49.965354
 10
105.628006
 20
42.465354
  0
LWPOLYLINE
  5
A4
100
AcDbEntity
  8
ASSEMBLY_OUTLINES_TOP
100
AcDbPolyline
 90
        2
 70
         0
 43
0.15
 10
101.628006
 20
42.465354
 42
1.0
 10
105.628006
 20
42.465354
  0
LWPOLYLINE
  5
A5
100
AcDbEntity
  8
ASSEMBLY_OUTLINES_TOP
100
AcDbPolyline
 90
        2
 70
         0
 43
0.15
 10
105.628006
 20
49.965354
 42
1.0
 10
101.628006
 20
49.965354
  0
LWPOLYLINE
  5
A6
100
AcDbEntity
  8
ASSEMBLY_OUTLINES_TOP
100
AcDbPolyline
 90
        2
 70
         0
 43
0.15
 10
138.95
 20
66.65
 10
138.95
 20
68.35
  0
LWPOLYLINE
  5
A7
100
AcDbEntity
  8
ASSEMBLY_OUTLINES_TOP
100
AcDbPolyline
 90
        2
 70
         0
 43
0.15
 10
139.05
 20
66.65
 10
139.05
 20
68.35
  0
LWPOLYLINE
  5
A8
100
AcDbEntity
  8
ASSEMBLY_OUTLINES_TOP
100
AcDbPolyline
 90
        2
 70
         0
 43
0.15
 10
139.15
 20
66.65
 10
139.15
 20
68.35
  0
LWPOLYLINE
  5
A9
100
AcDbEntity
  8
ASSEMBLY_OUTLINES_TOP
100
AcDbPolyline
 90
        2
 70
         0
 43
0.15
 10
139.25
 20
66.65
 10
139.25
 20
68.35
  0
LWPOLYLINE
  5
AA
100
AcDbEntity
  8
ASSEMBLY_OUTLINES_TOP
100
AcDbPolyline
 90
        2
 70
         0
 43
0.15
 10
139.35
 20
66.65
 10
139.35
 20
68.35
  0
LWPOLYLINE
  5
AB
100
AcDbEntity
  8
ASSEMBLY_OUTLINES_TOP
100
AcDbPolyline
 90
        2
 70
         0
 43
0.15
 10
139.45
 20
66.65
 10
139.45
 20
68.35
  0
LWPOLYLINE
  5
AC
100
AcDbEntity
  8
ASSEMBLY_OUTLINES_TOP
100
AcDbPolyline
 90
        4
 70
         1
 43
0.15
 10
138.85
 20
66.65
 10
138.85
 20
68.35
 10
141.95
 20
68.35
 10
141.95
 20
66.65
  0
LWPOLYLINE
  5
AD
100
AcDbEntity
  8
ASSEMBLY_OUTLINES_TOP
100
AcDbPolyline
 90
        4
 70
         1
 43
0.15
 10
95.99
 20
90.43
 10
95.99
 20
92.97
 10
103.49
 20
92.97
 10
103.49
 20
90.43
  0
LWPOLYLINE
  5
AE
100
AcDbEntity
  8
ASSEMBLY_OUTLINES_TOP
100
AcDbPolyline
 90
        4
 70
         1
 43
0.15
 10
151.89
 20
48.13
 10
151.89
 20
50.67
 10
156.97
 20
50.67
 10
156.97
 20
48.13
  0
LWPOLYLINE
  5
AF
100
AcDbEntity
  8
ASSEMBLY_OUTLINES_TOP
100
AcDbPolyline
 90
        2
 70
         0
 43
0.15
 10
136.15
 20
15.8
 10
136.15
 20
18.8
  0
LWPOLYLINE
  5
B0
100
AcDbEntity
  8
ASSEMBLY_OUTLINES_TOP
100
AcDbPolyline
 90
        2
 70
         0
 43
0.15
 10
136.25
 20
15.8
 10
136.25
 20
18.8
  0
LWPOLYLINE
  5
B1
100
AcDbEntity
  8
ASSEMBLY_OUTLINES_TOP
100
AcDbPolyline
 90
        2
 70
         0
 43
0.15
 10
136.35
 20
15.8
 10
136.35
 20
18.8
  0
LWPOLYLINE
  5
B2
100
AcDbEntity
  8
ASSEMBLY_OUTLINES_TOP
100
AcDbPolyline
 90
        2
 70
         0
 43
0.15
 10
136.45
 20
15.8
 10
136.45
 20
18.8
  0
LWPOLYLINE
  5
B3
100
AcDbEntity
  8
ASSEMBLY_OUTLINES_TOP
100
AcDbPolyline
 90
        2
 70
         0
 43
0.15
 10
136.55
 20
15.8
 10
136.55
 20
18.8
  0
LWPOLYLINE
  5
B4
100
AcDbEntity
  8
ASSEMBLY_OUTLINES_TOP
100
AcDbPolyline
 90
        2
 70
         0
 43
0.15
 10
136.65
 20
15.8
 10
136.65
 20
18.8
  0
LWPOLYLINE
  5
B5
100
AcDbEntity
  8
ASSEMBLY_OUTLINES_TOP
100
AcDbPolyline
 90
        2
 70
         0
 43
0.15
 10
136.75
 20
15.8
 10
136.75
 20
18.8
  0
LWPOLYLINE
  5
B6
100
AcDbEntity
  8
ASSEMBLY_OUTLINES_TOP
100
AcDbPolyline
 90
        2
 70
         0
 43
0.15
 10
136.85
 20
15.8
 10
136.85
 20
18.8
  0
LWPOLYLINE
  5
B7
100
AcDbEntity
  8
ASSEMBLY_OUTLINES_TOP
100
AcDbPolyline
 90
        4
 70
         1
 43
0.15
 10
136.05
 20
15.8
 10
136.05
 20
18.8
 10
139.75
 20
18.8
 10
139.75
 20
15.8
  0
LWPOLYLINE
  5
B8
100
AcDbEntity
  8
ASSEMBLY_OUTLINES_TOP
100
AcDbPolyline
 90
        4
 70
         1
 43
0.15
 10
149.620469
 20
71.489351
 10
149.620469
 20
83.489351
 10
165.570469
 20
83.489351
 10
165.570469
 20
71.489351
  0
LWPOLYLINE
  5
B9
100
AcDbEntity
  8
ASSEMBLY_OUTLINES_TOP
100
AcDbPolyline
 90
        6
 70
         1
 43
0.15
 10
136.55
 20
87.0
 10
138.2
 20
85.35
 10
138.2
 20
80.4
 10
131.6
 20
80.4
 10
131.6
 20
85.35
 10
133.25
 20
87.0
  0
LWPOLYLINE
  5
BA
100
AcDbEntity
  8
ASSEMBLY_OUTLINES_TOP
100
AcDbPolyline
 90
        4
 70
         1
 43
0.1
 10
108.16
 20
10.35
 10
108.16
 20
18.05
 10
113.44
 20
18.05
 10
113.44
 20
10.35
  0
LWPOLYLINE
  5
BB
100
AcDbEntity
  8
ASSEMBLY_OUTLINES_TOP
100
AcDbPolyline
 90
        2
 70
         0
 43
0.1
 10
113.44
 20
10.45
 10
113.34
 20
10.35
  0
LWPOLYLINE
  5
BC
100
AcDbEntity
  8
ASSEMBLY_OUTLINES_TOP
100
AcDbPolyline
 90
        2
 70
         0
 43
0.1
 10
113.44
 20
10.55
 10
113.24
 20
10.35
  0
LWPOLYLINE
  5
BD
100
AcDbEntity
  8
ASSEMBLY_OUTLINES_TOP
100
AcDbPolyline
 90
        2
 70
         0
 43
0.1
 10
113.44
 20
10.65
 10
113.14
 20
10.35
  0
LWPOLYLINE
  5
BE
100
AcDbEntity
  8
ASSEMBLY_OUTLINES_TOP
100
AcDbPolyline
 90
        2
 70
         0
 43
0.1
 10
113.44
 20
10.75
 10
113.04
 20
10.35
  0
LWPOLYLINE
  5
BF
100
AcDbEntity
  8
ASSEMBLY_OUTLINES_TOP
100
AcDbPolyline
 90
        2
 70
         0
 43
0.1
 10
113.44
 20
10.85
 10
112.94
 20
10.35
  0
LWPOLYLINE
  5
C0
100
AcDbEntity
  8
ASSEMBLY_OUTLINES_TOP
100
AcDbPolyline
 90
        2
 70
         0
 43
0.1
 10
113.44
 20
10.95
 10
112.84
 20
10.35
  0
LWPOLYLINE
  5
C1
100
AcDbEntity
  8
ASSEMBLY_OUTLINES_TOP
100
AcDbPolyline
 90
        5
 70
         1
 43
0.15
 10
92.6
 20
83.4
 10
59.6
 20
83.4
 10
59.6
 20
59.4
 10
88.35
 20
59.4
 10
92.6
 20
63.9
  0
LWPOLYLINE
  5
C2
100
AcDbEntity
  8
ASSEMBLY_OUTLINES_TOP
100
AcDbPolyline
 90
        4
 70
         1
 43
0.15
 10
78.1
 20
57.9
 10
78.1
 20
86.5
 10
94.65
 20
86.5
 10
94.65
 20
57.9
  0
LWPOLYLINE
  5
C3
100
AcDbEntity
  8
ASSEMBLY_OUTLINES_TOP
100
AcDbPolyline
 90
        4
 70
         1
 43
0.15
 10
113.19
 20
0.13
 10
113.19
 20
2.67
 10
118.27
 20
2.67
 10
118.27
 20
0.13
  0
LWPOLYLINE
  5
C4
100
AcDbEntity
  8
ASSEMBLY_OUTLINES_TOP
100
AcDbPolyline
 90
        2
 70
         0
 43
0.15
 10
149.2
 20
75.1
 10
145.4
 20
75.1
  0
LWPOLYLINE
  5
C5
100
AcDbEntity
  8
ASSEMBLY_OUTLINES_TOP
100
AcDbPolyline
 90
        2
 70
         0
 43
0.15
 10
149.2
 20
75.2
 10
145.4
 20
75.2
  0
LWPOLYLINE
  5
C6
100
AcDbEntity
  8
ASSEMBLY_OUTLINES_TOP
100
AcDbPolyline
 90
        2
 70
         0
 43
0.15
 10
149.2
 20
75.3
 10
145.4
 20
75.3
  0
LWPOLYLINE
  5
C7
100
AcDbEntity
  8
ASSEMBLY_OUTLINES_TOP
100
AcDbPolyline
 90
        2
 70
         0
 43
0.15
 10
149.2
 20
75.4
 10
145.4
 20
75.4
  0
LWPOLYLINE
  5
C8
100
AcDbEntity
  8
ASSEMBLY_OUTLINES_TOP
100
AcDbPolyline
 90
        2
 70
         0
 43
0.15
 10
149.2
 20
75.5
 10
145.4
 20
75.5
  0
LWPOLYLINE
  5
C9
100
AcDbEntity
  8
ASSEMBLY_OUTLINES_TOP
100
AcDbPolyline
 90
        2
 70
         0
 43
0.15
 10
149.2
 20
75.6
 10
145.4
 20
75.6
  0
LWPOLYLINE
  5
CA
100
AcDbEntity
  8
ASSEMBLY_OUTLINES_TOP
100
AcDbPolyline
 90
        2
 70
         0
 43
0.15
 10
149.2
 20
75.7
 10
145.4
 20
75.7
  0
LWPOLYLINE
  5
CB
100
AcDbEntity
  8
ASSEMBLY_OUTLINES_TOP
100
AcDbPolyline
 90
        2
 70
         0
 43
0.15
 10
149.2
 20
75.8
 10
145.4
 20
75.8
  0
LWPOLYLINE
  5
CC
100
AcDbEntity
  8
ASSEMBLY_OUTLINES_TOP
100
AcDbPolyline
 90
        4
 70
         1
 43
0.15
 10
145.4
 20
75.0
 10
145.4
 20
80.6
 10
149.2
 20
80.6
 10
149.2
 20
75.0
  0
LWPOLYLINE
  5
CD
100
AcDbEntity
  8
ASSEMBLY_OUTLINES_TOP
100
AcDbPolyline
 90
        4
 70
         1
 43
0.15
 10
158.09
 20
67.53
 10
158.09
 20
70.07
 10
163.17
 20
70.07
 10
163.17
 20
67.53
  0
LWPOLYLINE
  5
CE
100
AcDbEntity
  8
ASSEMBLY_OUTLINES_TOP
100
AcDbPolyline
 90
        4
 70
         1
 43
0.15
 10
158.19
 20
48.13
 10
158.19
 20
50.67
 10
163.27
 20
50.67
 10
163.27
 20
48.13
  0
LWPOLYLINE
  5
CF
100
AcDbEntity
  8
ASSEMBLY_OUTLINES_TOP
100
AcDbPolyline
 90
        4
 70
         1
 10
78.751005
 20
60.748337
 10
78.751005
 20
74.148337
 10
90.851005
 20
74.148337
 10
90.851005
 20
60.748337
  0
LWPOLYLINE
  5
D0
100
AcDbEntity
  8
ASSEMBLY_OUTLINES_TOP
100
AcDbPolyline
 90
        4
 70
         1
 10
71.751005
 20
62.448337
 10
71.751005
 20
73.448337
 10
78.751005
 20
73.448337
 10
78.751005
 20
62.448337
  0
LWPOLYLINE
  5
D1
100
AcDbEntity
  8
ASSEMBLY_OUTLINES_TOP
100
AcDbPolyline
 90
        4
 70
         1
 43
0.15
 10
78.339485
 20
-0.294391
 10
78.339485
 20
54.705609
 10
85.339485
 20
54.705609
 10
85.339485
 20
-0.294391
  0
LWPOLYLINE
  5
D2
100
AcDbEntity
  8
ASSEMBLY_OUTLINES_TOP
100
AcDbPolyline
 90
        4
 70
         1
 43
0.15
 10
78.359485
 20
-0.294391
 10
78.359485
 20
54.705609
 10
85.339485
 20
54.705609
 10
85.339485
 20
-0.294391
  0
LWPOLYLINE
  5
D3
100
AcDbEntity
  8
ASSEMBLY_OUTLINES_TOP
100
AcDbPolyline
 90
        4
 70
         1
 43
0.15
 10
84.839485
 20
24.575609
 10
84.839485
 20
29.825609
 10
85.339485
 20
29.825609
 10
85.339485
 20
24.575609
  0
LWPOLYLINE
  5
D4
100
AcDbEntity
  8
ASSEMBLY_OUTLINES_TOP
100
AcDbPolyline
 90
        4
 70
         1
 43
0.15
 10
109.357701
 20
38.470265
 10
109.357701
 20
58.470265
 10
129.357701
 20
58.470265
 10
129.357701
 20
38.470265
  0
LWPOLYLINE
  5
D5
100
AcDbEntity
  8
ASSEMBLY_OUTLINES_TOP
100
AcDbPolyline
 90
        2
 70
         1
 43
0.15
 10
109.857701
 20
57.470265
 42
-1.0
 10
110.857701
 20
57.470265
 42
-1.0
  0
LWPOLYLINE
  5
D6
100
AcDbEntity
  8
ASSEMBLY_OUTLINES_TOP
100
AcDbPolyline
 90
        2
 70
         1
 43
0.15
 10
101.385304
 20
54.710856
 42
-1.0
 10
105.385304
 20
54.710856
 42
-1.0
  0
LWPOLYLINE
  5
D7
100
AcDbEntity
  8
ASSEMBLY_OUTLINES_TOP
100
AcDbPolyline
 90
        4
 70
         1
 43
0.15
 10
143.01
 20
53.33
 10
143.01
 20
55.87
 10
150.51
 20
55.87
 10
150.51
 20
53.33
  0
LWPOLYLINE
  5
D8
100
AcDbEntity
  8
ASSEMBLY_OUTLINES_TOP
100
AcDbPolyline
 90
        4
 70
         1
 43
0.15
 10
152.04
 20
52.86
 10
152.04
 20
66.06
 10
166.04
 20
66.06
 10
166.04
 20
52.86
  0
LWPOLYLINE
  5
D9
100
AcDbEntity
  8
ASSEMBLY_OUTLINES_TOP
100
AcDbPolyline
 90
        4
 70
         1
 43
0.15
 10
134.734805
 20
20.777645
 10
134.734805
 20
30.777645
 10
138.734805
 20
30.777645
 10
138.734805
 20
20.777645
  0
LWPOLYLINE
  5
DA
100
AcDbEntity
  8
ASSEMBLY_OUTLINES_TOP
100
AcDbPolyline
 90
        2
 70
         1
 43
0.15
 10
137.234805
 20
21.777645
 42
-1.0
 10
138.234805
 20
21.777645
 42
-1.0
  0
LWPOLYLINE
  5
DB
100
AcDbEntity
  8
ASSEMBLY_OUTLINES_TOP
100
AcDbPolyline
 90
        4
 70
         1
 43
0.15
 10
143.01
 20
62.53
 10
143.01
 20
65.07
 10
150.51
 20
65.07
 10
150.51
 20
62.53
  0
LWPOLYLINE
  5
DC
100
AcDbEntity
  8
ASSEMBLY_OUTLINES_TOP
100
AcDbPolyline
 90
        4
 70
         1
 43
0.15
 10
142.776915
 20
16.890213
 10
142.776915
 20
49.890213
 10
151.476915
 20
49.890213
 10
151.476915
 20
16.890213
  0
LWPOLYLINE
  5
DD
100
AcDbEntity
  8
ASSEMBLY_OUTLINES_TOP
100
AcDbPolyline
 90
        4
 70
         1
 43
0.15
 10
142.776915
 20
30.320213
 10
142.776915
 20
36.820213
 10
143.356915
 20
36.820213
 10
143.356915
 20
30.320213
  0
LWPOLYLINE
  5
DE
100
AcDbEntity
  8
ASSEMBLY_OUTLINES_TOP
100
AcDbPolyline
 90
        4
 70
         1
 43
0.1
 10
102.3
 20
3.2
 10
102.3
 20
7.2
 10
107.3
 20
7.2
 10
107.3
 20
3.2
  0
LWPOLYLINE
  5
DF
100
AcDbEntity
  8
ASSEMBLY_OUTLINES_TOP
100
AcDbPolyline
 90
        2
 70
         1
 43
0.1
 10
105.8
 20
6.2
 42
-1.0
 10
106.8
 20
6.2
 42
-1.0
  0
LWPOLYLINE
  5
E0
100
AcDbEntity
  8
ASSEMBLY_OUTLINES_TOP
100
AcDbPolyline
 90
        4
 70
         1
 43
0.15
 10
138.8
 20
87.832
 10
138.8
 20
97.482
 10
149.2
 20
97.482
 10
149.2
 20
87.832
  0
LWPOLYLINE
  5
E1
100
AcDbEntity
  8
ASSEMBLY_OUTLINES_TOP
100
AcDbPolyline
 90
        4
 70
         1
 43
0.15
 10
143.01
 20
59.93
 10
143.01
 20
62.47
 10
150.51
 20
62.47
 10
150.51
 20
59.93
  0
TEXT
  5
E3
100
AcDbEntity
  8
ASSEMBLY_REF_DES_TOP
100
AcDbText
 10
157.86053
 20
29.62304
 30
0.0
 40
1.0
  1
X7
 50
90.0
  7
GOST_TYPE_B
 72
         2
 11
157.86053
 21
31.18604
 31
0.0
100
AcDbText
 73
         1
  0
TEXT
  5
E4
100
AcDbEntity
  8
ASSEMBLY_REF_DES_TOP
100
AcDbText
 10
150.4935
 20
67.5275
 30
0.0
 40
1.0
  1
VD2
 50
90.0
  7
GOST_TYPE_B
 72
         1
 11
150.0
 21
68.7
 31
0.0
100
AcDbText
 73
         2
  0
TEXT
  5
E5
100
AcDbEntity
  8
ASSEMBLY_REF_DES_TOP
100
AcDbText
 10
100.1
 20
37.78
 30
0.0
 40
1.0
  1
J9
 50
90.0
  7
GOST_TYPE_B
 72
         2
 11
100.1
 21
39.05
 31
0.0
100
AcDbText
 73
         1
  0
TEXT
  5
E6
100
AcDbEntity
  8
ASSEMBLY_REF_DES_TOP
100
AcDbText
 10
112.548855
 20
-3.266144
 30
0.0
 40
1.0
  1
X9
 50
270.0
  7
GOST_TYPE_B
 72
         1
 11
113.042355
 21
-4.047644
 31
0.0
100
AcDbText
 73
         2
  0
TEXT
  5
E7
100
AcDbEntity
  8
ASSEMBLY_REF_DES_TOP
100
AcDbText
 10
158.732315
 20
88.043537
 30
0.0
 40
1.0
  1
X2
 50
90.0
  7
GOST_TYPE_B
 72
         2
 11
158.732315
 21
89.606537
 31
0.0
100
AcDbText
 73
         1
  0
TEXT
  5
E8
100
AcDbEntity
  8
ASSEMBLY_REF_DES_TOP
100
AcDbText
 10
141.2935
 20
73.816
 30
0.0
 40
1.0
  1
C2
 50
90.0
  7
GOST_TYPE_B
 72
         1
 11
140.8
 21
74.5
 31
0.0
100
AcDbText
 73
         2
  0
TEXT
  5
E9
100
AcDbEntity
  8
ASSEMBLY_REF_DES_TOP
100
AcDbText
 10
110.908728
 20
96.349755
 30
0.0
 40
1.0
  1
X1
 50
90.0
  7
GOST_TYPE_B
 72
         1
 11
110.415228
 21
97.033255
 31
0.0
100
AcDbText
 73
         2
  0
TEXT
  5
EA
100
AcDbEntity
  8
ASSEMBLY_REF_DES_TOP
100
AcDbText
 10
147.25
 20
56.83
 30
0.0
 40
1.0
  1
J5
 50
90.0
  7
GOST_TYPE_B
 72
         2
 11
147.25
 21
58.1
 31
0.0
100
AcDbText
 73
         1
  0
TEXT
  5
EB
100
AcDbEntity
  8
ASSEMBLY_REF_DES_TOP
100
AcDbText
 10
138.0
 20
38.655
 30
0.0
 40
1.0
  1
SW1
 50
90.0
  7
GOST_TYPE_B
 72
         2
 11
138.0
 21
41.0
 31
0.0
100
AcDbText
 73
         1
  0
TEXT
  5
EC
100
AcDbEntity
  8
ASSEMBLY_REF_DES_TOP
100
AcDbText
 10
94.137
 20
11.55
 30
0.0
 40
1.0
  1
Bat1
 50
90.0
  7
GOST_TYPE_B
 11
93.15
 21
11.55
 31
0.0
100
AcDbText
 73
         3
  0
TEXT
  5
ED
100
AcDbEntity
  8
ASSEMBLY_REF_DES_TOP
100
AcDbText
 10
154.3935
 20
7.015
 30
0.0
 40
1.0
  1
T1
 50
90.0
  7
GOST_TYPE_B
 72
         1
 11
153.9
 21
7.65
 31
0.0
100
AcDbText
 73
         2
  0
TEXT
  5
EE
100
AcDbEntity
  8
ASSEMBLY_REF_DES_TOP
100
AcDbText
 10
124.271444
 20
10.988796
 30
0.0
 40
1.0
  1
DD2
 50
90.0
  7
GOST_TYPE_B
 72
         1
 11
123.777944
 21
12.112796
 31
0.0
100
AcDbText
 73
         2
  0
TEXT
  5
EF
100
AcDbEntity
  8
ASSEMBLY_REF_DES_TOP
100
AcDbText
 10
103.621506
 20
44.994354
 30
0.0
 40
1.0
  1
ZQ2
 50
90.0
  7
GOST_TYPE_B
 72
         1
 11
103.128006
 21
46.215354
 31
0.0
100
AcDbText
 73
         2
  0
TEXT
  5
F0
100
AcDbEntity
  8
ASSEMBLY_REF_DES_TOP
100
AcDbText
 10
138.1935
 20
66.423
 30
0.0
 40
1.0
  1
HL1
 50
90.0
  7
GOST_TYPE_B
 72
         1
 11
137.7
 21
67.4
 31
0.0
100
AcDbText
 73
         2
  0
TEXT
  5
F1
100
AcDbEntity
  8
ASSEMBLY_REF_DES_TOP
100
AcDbText
 10
100.35
 20
91.326
 30
0.0
 40
1.0
  1
J1
 50
90.0
  7
GOST_TYPE_B
 72
         2
 11
100.35
 21
92.4
 31
0.0
100
AcDbText
 73
         1
  0
TEXT
  5
F2
100
AcDbEntity
  8
ASSEMBLY_REF_DES_TOP
100
AcDbText
 10
154.9
 20
48.93
 30
0.0
 40
1.0
  1
J7
 50
90.0
  7
GOST_TYPE_B
 72
         2
 11
154.9
 21
50.2
 31
0.0
100
AcDbText
 73
         1
  0
TEXT
  5
F3
100
AcDbEntity
  8
ASSEMBLY_REF_DES_TOP
100
AcDbText
 10
138.7935
 20
16.616
 30
0.0
 40
1.0
  1
C3
 50
90.0
  7
GOST_TYPE_B
 72
         1
 11
138.3
 21
17.3
 31
0.0
100
AcDbText
 73
         2
  0
TEXT
  5
F4
100
AcDbEntity
  8
ASSEMBLY_REF_DES_TOP
100
AcDbText
 10
158.187894
 20
77.108926
 30
0.0
 40
1.0
  1
X3
 50
90.0
  7
GOST_TYPE_B
 72
         2
 11
158.187894
 21
78.671926
 31
0.0
100
AcDbText
 73
         1
  0
TEXT
  5
F5
100
AcDbEntity
  8
ASSEMBLY_REF_DES_TOP
100
AcDbText
 10
135.3935
 20
83.114
 30
0.0
 40
1.0
  1
C1
 50
90.0
  7
GOST_TYPE_B
 72
         1
 11
134.9
 21
83.7
 31
0.0
100
AcDbText
 73
         2
  0
TEXT
  5
F6
100
AcDbEntity
  8
ASSEMBLY_REF_DES_TOP
100
AcDbText
 10
111.2935
 20
12.9785
 30
0.0
 40
1.0
  1
DA4
 50
90.0
  7
GOST_TYPE_B
 72
         1
 11
110.8
 21
14.2
 31
0.0
100
AcDbText
 73
         2
  0
TEXT
  5
F7
100
AcDbEntity
  8
ASSEMBLY_REF_DES_TOP
100
AcDbText
 10
87.25
 20
71.014
 30
0.0
 40
1.0
  1
X4
 50
90.0
  7
GOST_TYPE_B
 72
         2
 11
87.25
 21
72.675
 31
0.0
100
AcDbText
 73
         1
  0
TEXT
  5
F8
100
AcDbEntity
  8
ASSEMBLY_REF_DES_TOP
100
AcDbText
 10
116.2
 20
0.342
 30
0.0
 40
1.0
  1
J10
 50
90.0
  7
GOST_TYPE_B
 72
         2
 11
116.2
 21
2.1
 31
0.0
100
AcDbText
 73
         1
  0
TEXT
  5
F9
100
AcDbEntity
  8
ASSEMBLY_REF_DES_TOP
100
AcDbText
 10
147.7935
 20
76.7255
 30
0.0
 40
1.0
  1
VD1
 50
90.0
  7
GOST_TYPE_B
 72
         1
 11
147.3
 21
77.8
 31
0.0
100
AcDbText
 73
         2
  0
TEXT
  5
FA
100
AcDbEntity
  8
ASSEMBLY_REF_DES_TOP
100
AcDbText
 10
161.3
 20
68.23
 30
0.0
 40
1.0
  1
J2
 50
90.0
  7
GOST_TYPE_B
 72
         2
 11
161.3
 21
69.5
 31
0.0
100
AcDbText
 73
         1
  0
TEXT
  5
FB
100
AcDbEntity
  8
ASSEMBLY_REF_DES_TOP
100
AcDbText
 10
161.3
 20
48.832
 30
0.0
 40
1.0
  1
J8
 50
90.0
  7
GOST_TYPE_B
 72
         2
 11
161.3
 21
50.2
 31
0.0
100
AcDbText
 73
         1
  0
TEXT
  5
FC
100
AcDbEntity
  8
ASSEMBLY_REF_DES_TOP
100
AcDbText
 10
85.507505
 20
68.473837
 30
0.0
 40
1.0
  1
X10
 50
270.0
  7
GOST_TYPE_B
 72
         1
 11
86.001005
 21
67.448337
 31
0.0
100
AcDbText
 73
         2
  0
TEXT
  5
FD
100
AcDbEntity
  8
ASSEMBLY_REF_DES_TOP
100
AcDbText
 10
82.222766
 20
26.235329
 30
0.0
 40
1.0
  1
X8
 50
90.0
  7
GOST_TYPE_B
 72
         1
 11
81.729266
 21
27.065829
 31
0.0
100
AcDbText
 73
         2
  0
TEXT
  5
FE
100
AcDbEntity
  8
ASSEMBLY_REF_DES_TOP
100
AcDbText
 10
119.851201
 20
47.444265
 30
0.0
 40
1.0
  1
DD1
 50
90.0
  7
GOST_TYPE_B
 72
         1
 11
119.357701
 21
48.470265
 31
0.0
100
AcDbText
 73
         2
  0
TEXT
  5
FF
100
AcDbEntity
  8
ASSEMBLY_REF_DES_TOP
100
AcDbText
 10
104.0
 20
53.464
 30
0.0
 40
1.0
  1
ZQ1
 50
90.0
  7
GOST_TYPE_B
 72
         2
 11
104.0
 21
55.71
 31
0.0
100
AcDbText
 73
         1
  0
TEXT
  5
100
100
AcDbEntity
  8
ASSEMBLY_REF_DES_TOP
100
AcDbText
 10
147.25
 20
54.23
 30
0.0
 40
1.0
  1
J6
 50
90.0
  7
GOST_TYPE_B
 72
         2
 11
147.25
 21
55.5
 31
0.0
100
AcDbText
 73
         1
  0
TEXT
  5
101
100
AcDbEntity
  8
ASSEMBLY_REF_DES_TOP
100
AcDbText
 10
158.74
 20
58.647
 30
0.0
 40
1.0
  1
X5
 50
90.0
  7
GOST_TYPE_B
 72
         2
 11
158.74
 21
60.21
 31
0.0
100
AcDbText
 73
         1
  0
TEXT
  5
102
100
AcDbEntity
  8
ASSEMBLY_REF_DES_TOP
100
AcDbText
 10
137.228305
 20
24.605145
 30
0.0
 40
1.0
  1
DA2
 50
90.0
  7
GOST_TYPE_B
 72
         1
 11
136.734805
 21
25.777645
 31
0.0
100
AcDbText
 73
         2
  0
TEXT
  5
103
100
AcDbEntity
  8
ASSEMBLY_REF_DES_TOP
100
AcDbText
 10
147.25
 20
63.43
 30
0.0
 40
1.0
  1
J3
 50
90.0
  7
GOST_TYPE_B
 72
         2
 11
147.25
 21
64.7
 31
0.0
100
AcDbText
 73
         1
  0
TEXT
  5
104
100
AcDbEntity
  8
ASSEMBLY_REF_DES_TOP
100
AcDbText
 10
147.62434
 20
32.739788
 30
0.0
 40
1.0
  1
X6
 50
90.0
  7
GOST_TYPE_B
 72
         2
 11
147.62434
 21
34.302788
 31
0.0
100
AcDbText
 73
         1
  0
TEXT
  5
105
100
AcDbEntity
  8
ASSEMBLY_REF_DES_TOP
100
AcDbText
 10
104.3065
 20
6.3725
 30
0.0
 40
1.0
  1
DA3
 50
270.0
  7
GOST_TYPE_B
 72
         1
 11
104.8
 21
5.2
 31
0.0
100
AcDbText
 73
         2
  0
TEXT
  5
106
100
AcDbEntity
  8
ASSEMBLY_REF_DES_TOP
100
AcDbText
 10
144.6935
 20
90.8255
 30
0.0
 40
1.0
  1
DA1
 50
90.0
  7
GOST_TYPE_B
 72
         1
 11
144.2
 21
91.9
 31
0.0
100
AcDbText
 73
         2
  0
TEXT
  5
107
100
AcDbEntity
  8
ASSEMBLY_REF_DES_TOP
100
AcDbText
 10
147.25
 20
60.732
 30
0.0
 40
1.0
  1
J4
 50
90.0
  7
GOST_TYPE_B
 72
         2
 11
147.25
 21
62.1
 31
0.0
100
AcDbText
 73
         1
  0
LWPOLYLINE
  5
108
100
AcDbEntity
  8
BOARD_OUTLINE
100
AcDbPolyline
 90
        4
 70
         1
 43
0.25
 10
78.5
 20
-7.5
 10
78.5
 20
100.5
 10
164.5
 20
100.5
 10
164.5
 20
-7.5
  0
LWPOLYLINE
  5
109
100
AcDbEntity
  8
FIDUCIAL_PADS_TOP
100
AcDbPolyline
 90
        4
 70
         1
 10
82.451005
 20
59.548337
 10
82.451005
 20
60.748337
 10
84.451005
 20
60.748337
 10
84.451005
 20
59.548337
  0
LWPOLYLINE
  5
10A
100
AcDbEntity
  8
FIDUCIAL_PADS_TOP
100
AcDbPolyline
 90
        4
 70
         1
 10
82.451005
 20
74.148337
 10
82.451005
 20
75.348337
 10
84.451005
 20
75.348337
 10
84.451005
 20
74.148337
  0
LWPOLYLINE
  5
10B
100
AcDbEntity
  8
MOUNTING_HOLES_LAYER_TOP
100
AcDbPolyline
 90
        2
 70
         1
 43
2.25
 10
159.375
 20
96.5
 42
-1.0
 10
161.625
 20
96.5
 42
-1.0
  0
LWPOLYLINE
  5
10C
100
AcDbEntity
  8
MOUNTING_HOLES_LAYER_TOP
100
AcDbPolyline
 90
        2
 70
         1
 43
2.25
 10
159.375
 20
-3.5
 42
-1.0
 10
161.625
 20
-3.5
 42
-1.0
  0
LWPOLYLINE
  5
10D
100
AcDbEntity
  8
MOUNTING_HOLES_LAYER_TOP
100
AcDbPolyline
 90
        2
 70
         1
 43
2.25
 10
81.375
 20
-3.5
 42
-1.0
 10
83.625
 20
-3.5
 42
-1.0
  0
LWPOLYLINE
  5
10E
100
AcDbEntity
  8
MOUNTING_HOLES_LAYER_TOP
100
AcDbPolyline
 90
        2
 70
         1
 43
2.25
 10
84.875
 20
90.0
 42
-1.0
 10
87.125
 20
90.0
 42
-1.0
  0
LWPOLYLINE
  5
10F
100
AcDbEntity
  8
MOUNTING_HOLES_LAYER_TOP
100
AcDbPolyline
 90
        2
 70
         1
 43
0.75
 10
93.525
 20
10.05
 42
-1.0
 10
94.275
 20
10.05
 42
-1.0
  0
LWPOLYLINE
  5
110
100
AcDbEntity
  8
MOUNTING_HOLES_LAYER_TOP
100
AcDbPolyline
 90
        2
 70
         1
 43
0.75
 10
93.525
 20
17.55
 42
-1.0
 10
94.275
 20
17.55
 42
-1.0
  0
LWPOLYLINE
  5
111
100
AcDbEntity
  8
MOUNTING_HOLES_LAYER_TOP
100
AcDbPolyline
 90
        2
 70
         1
 43
0.85
 10
92.575
 20
59.45
 42
-1.0
 10
93.425
 20
59.45
 42
-1.0
  0
LWPOLYLINE
  5
112
100
AcDbEntity
  8
MOUNTING_HOLES_LAYER_TOP
100
AcDbPolyline
 90
        2
 70
         1
 43
0.85
 10
92.575
 20
84.75
 42
-1.0
 10
93.425
 20
84.75
 42
-1.0
  0
LWPOLYLINE
  5
113
100
AcDbEntity
  8
MOUNTING_HOLES_LAYER_TOP
100
AcDbPolyline
 90
        2
 70
         1
 43
0.75
 10
87.876005
 20
72.448337
 42
-1.0
 10
88.626005
 20
72.448337
 42
-1.0
  0
LWPOLYLINE
  5
114
100
AcDbEntity
  8
MOUNTING_HOLES_LAYER_TOP
100
AcDbPolyline
 90
        2
 70
         1
 43
0.75
 10
87.876005
 20
62.448337
 42
-1.0
 10
88.626005
 20
62.448337
 42
-1.0
  0
LWPOLYLINE
  5
115
100
AcDbEntity
  8
PART_HOLES_LAYER_TOP
100
AcDbPolyline
 90
        2
 70
         1
 43
0.6
 10
153.26053
 20
37.48604
 42
-1.0
 10
153.86053
 20
37.48604
 42
-1.0
  0
LWPOLYLINE
  5
116
100
AcDbEntity
  8
PART_HOLES_LAYER_TOP
100
AcDbPolyline
 90
        2
 70
         1
 43
0.6
 10
156.10053
 20
33.33104
 42
-1.0
 10
156.70053
 20
33.33104
 42
-1.0
  0
LWPOLYLINE
  5
117
100
AcDbEntity
  8
PART_HOLES_LAYER_TOP
100
AcDbPolyline
 90
        2
 70
         1
 43
0.6
 10
156.10053
 20
36.10104
 42
-1.0
 10
156.70053
 20
36.10104
 42
-1.0
  0
LWPOLYLINE
  5
118
100
AcDbEntity
  8
PART_HOLES_LAYER_TOP
100
AcDbPolyline
 90
        2
 70
         1
 43
1.5
 10
154.23053
 20
44.44604
 42
-1.0
 10
155.73053
 20
44.44604
 42
-1.0
  0
LWPOLYLINE
  5
119
100
AcDbEntity
  8
PART_HOLES_LAYER_TOP
100
AcDbPolyline
 90
        2
 70
         1
 43
1.5
 10
154.23053
 20
19.44604
 42
-1.0
 10
155.73053
 20
19.44604
 42
-1.0
  0
LWPOLYLINE
  5
11A
100
AcDbEntity
  8
PART_HOLES_LAYER_TOP
100
AcDbPolyline
 90
        2
 70
         1
 43
0.6
 10
156.10053
 20
30.56104
 42
-1.0
 10
156.70053
 20
30.56104
 42
-1.0
  0
LWPOLYLINE
  5
11B
100
AcDbEntity
  8
PART_HOLES_LAYER_TOP
100
AcDbPolyline
 90
        2
 70
         1
 43
0.6
 10
153.26053
 20
26.40604
 42
-1.0
 10
153.86053
 20
26.40604
 42
-1.0
  0
LWPOLYLINE
  5
11C
100
AcDbEntity
  8
PART_HOLES_LAYER_TOP
100
AcDbPolyline
 90
        2
 70
         1
 43
0.6
 10
153.26053
 20
34.71604
 42
-1.0
 10
153.86053
 20
34.71604
 42
-1.0
  0
LWPOLYLINE
  5
11D
100
AcDbEntity
  8
PART_HOLES_LAYER_TOP
100
AcDbPolyline
 90
        2
 70
         1
 43
0.6
 10
156.10053
 20
27.79104
 42
-1.0
 10
156.70053
 20
27.79104
 42
-1.0
  0
LWPOLYLINE
  5
11E
100
AcDbEntity
  8
PART_HOLES_LAYER_TOP
100
AcDbPolyline
 90
        2
 70
         1
 43
0.6
 10
153.26053
 20
29.17604
 42
-1.0
 10
153.86053
 20
29.17604
 42
-1.0
  0
LWPOLYLINE
  5
11F
100
AcDbEntity
  8
PART_HOLES_LAYER_TOP
100
AcDbPolyline
 90
        2
 70
         1
 43
0.6
 10
153.26053
 20
31.94604
 42
-1.0
 10
153.86053
 20
31.94604
 42
-1.0
  0
LWPOLYLINE
  5
120
100
AcDbEntity
  8
PART_HOLES_LAYER_TOP
100
AcDbPolyline
 90
        2
 70
         1
 43
0.45
 10
99.275
 20
41.38
 42
-1.0
 10
99.725
 20
41.38
 42
-1.0
  0
LWPOLYLINE
  5
121
100
AcDbEntity
  8
PART_HOLES_LAYER_TOP
100
AcDbPolyline
 90
        2
 70
         1
 43
0.45
 10
99.275
 20
38.84
 42
-1.0
 10
99.725
 20
38.84
 42
-1.0
  0
LWPOLYLINE
  5
122
100
AcDbEntity
  8
PART_HOLES_LAYER_TOP
100
AcDbPolyline
 90
        2
 70
         1
 43
0.45
 10
99.275
 20
36.3
 42
-1.0
 10
99.725
 20
36.3
 42
-1.0
  0
LWPOLYLINE
  5
123
100
AcDbEntity
  8
PART_HOLES_LAYER_TOP
100
AcDbPolyline
 90
        2
 70
         1
 43
0.45
 10
134.335
 20
-2.8
 42
-1.0
 10
134.785
 20
-2.8
 42
-1.0
  0
LWPOLYLINE
  5
124
100
AcDbEntity
  8
PART_HOLES_LAYER_TOP
100
AcDbPolyline
 90
        2
 70
         1
 43
0.45
 10
131.795
 20
-2.8
 42
-1.0
 10
132.245
 20
-2.8
 42
-1.0
  0
LWPOLYLINE
  5
125
100
AcDbEntity
  8
PART_HOLES_LAYER_TOP
100
AcDbPolyline
 90
        2
 70
         1
 43
0.45
 10
121.635
 20
-2.8
 42
-1.0
 10
122.085
 20
-2.8
 42
-1.0
  0
LWPOLYLINE
  5
126
100
AcDbEntity
  8
PART_HOLES_LAYER_TOP
100
AcDbPolyline
 90
        2
 70
         1
 43
0.45
 10
119.095
 20
-2.8
 42
-1.0
 10
119.545
 20
-2.8
 42
-1.0
  0
LWPOLYLINE
  5
127
100
AcDbEntity
  8
PART_HOLES_LAYER_TOP
100
AcDbPolyline
 90
        2
 70
         1
 43
0.45
 10
116.555
 20
-2.8
 42
-1.0
 10
117.005
 20
-2.8
 42
-1.0
  0
LWPOLYLINE
  5
128
100
AcDbEntity
  8
PART_HOLES_LAYER_TOP
100
AcDbPolyline
 90
        2
 70
         1
 43
0.45
 10
114.015
 20
-2.8
 42
-1.0
 10
114.465
 20
-2.8
 42
-1.0
  0
LWPOLYLINE
  5
129
100
AcDbEntity
  8
PART_HOLES_LAYER_TOP
100
AcDbPolyline
 90
        2
 70
         1
 43
0.45
 10
111.475
 20
-2.8
 42
-1.0
 10
111.925
 20
-2.8
 42
-1.0
  0
LWPOLYLINE
  5
12A
100
AcDbEntity
  8
PART_HOLES_LAYER_TOP
100
AcDbPolyline
 90
        2
 70
         1
 43
0.45
 10
108.935
 20
-2.8
 42
-1.0
 10
109.385
 20
-2.8
 42
-1.0
  0
LWPOLYLINE
  5
12B
100
AcDbEntity
  8
PART_HOLES_LAYER_TOP
100
AcDbPolyline
 90
        2
 70
         1
 43
0.45
 10
106.395
 20
-2.8
 42
-1.0
 10
106.845
 20
-2.8
 42
-1.0
  0
LWPOLYLINE
  5
12C
100
AcDbEntity
  8
PART_HOLES_LAYER_TOP
100
AcDbPolyline
 90
        2
 70
         1
 43
0.45
 10
103.855
 20
-2.8
 42
-1.0
 10
104.305
 20
-2.8
 42
-1.0
  0
LWPOLYLINE
  5
12D
100
AcDbEntity
  8
PART_HOLES_LAYER_TOP
100
AcDbPolyline
 90
        2
 70
         1
 43
0.45
 10
101.315
 20
-2.8
 42
-1.0
 10
101.765
 20
-2.8
 42
-1.0
  0
LWPOLYLINE
  5
12E
100
AcDbEntity
  8
PART_HOLES_LAYER_TOP
100
AcDbPolyline
 90
        2
 70
         1
 43
0.45
 10
98.775
 20
-2.8
 42
-1.0
 10
99.225
 20
-2.8
 42
-1.0
  0
LWPOLYLINE
  5
12F
100
AcDbEntity
  8
PART_HOLES_LAYER_TOP
100
AcDbPolyline
 90
        2
 70
         1
 43
0.45
 10
96.235
 20
-2.8
 42
-1.0
 10
96.685
 20
-2.8
 42
-1.0
  0
LWPOLYLINE
  5
130
100
AcDbEntity
  8
PART_HOLES_LAYER_TOP
100
AcDbPolyline
 90
        2
 70
         1
 43
0.45
 10
91.155
 20
-2.8
 42
-1.0
 10
91.605
 20
-2.8
 42
-1.0
  0
LWPOLYLINE
  5
131
100
AcDbEntity
  8
PART_HOLES_LAYER_TOP
100
AcDbPolyline
 90
        2
 70
         1
 43
0.45
 10
88.615
 20
-2.8
 42
-1.0
 10
89.065
 20
-2.8
 42
-1.0
  0
LWPOLYLINE
  5
132
100
AcDbEntity
  8
PART_HOLES_LAYER_TOP
100
AcDbPolyline
 90
        2
 70
         1
 43
0.45
 10
131.795
 20
-5.34
 42
-1.0
 10
132.245
 20
-5.34
 42
-1.0
  0
LWPOLYLINE
  5
133
100
AcDbEntity
  8
PART_HOLES_LAYER_TOP
100
AcDbPolyline
 90
        2
 70
         1
 43
0.45
 10
121.635
 20
-5.34
 42
-1.0
 10
122.085
 20
-5.34
 42
-1.0
  0
LWPOLYLINE
  5
134
100
AcDbEntity
  8
PART_HOLES_LAYER_TOP
100
AcDbPolyline
 90
        2
 70
         1
 43
0.45
 10
119.095
 20
-5.34
 42
-1.0
 10
119.545
 20
-5.34
 42
-1.0
  0
LWPOLYLINE
  5
135
100
AcDbEntity
  8
PART_HOLES_LAYER_TOP
100
AcDbPolyline
 90
        2
 70
         1
 43
0.45
 10
116.555
 20
-5.34
 42
-1.0
 10
117.005
 20
-5.34
 42
-1.0
  0
LWPOLYLINE
  5
136
100
AcDbEntity
  8
PART_HOLES_LAYER_TOP
100
AcDbPolyline
 90
        2
 70
         1
 43
0.45
 10
114.015
 20
-5.34
 42
-1.0
 10
114.465
 20
-5.34
 42
-1.0
  0
LWPOLYLINE
  5
137
100
AcDbEntity
  8
PART_HOLES_LAYER_TOP
100
AcDbPolyline
 90
        2
 70
         1
 43
0.45
 10
111.475
 20
-5.34
 42
-1.0
 10
111.925
 20
-5.34
 42
-1.0
  0
LWPOLYLINE
  5
138
100
AcDbEntity
  8
PART_HOLES_LAYER_TOP
100
AcDbPolyline
 90
        2
 70
         1
 43
0.45
 10
108.935
 20
-5.34
 42
-1.0
 10
109.385
 20
-5.34
 42
-1.0
  0
LWPOLYLINE
  5
139
100
AcDbEntity
  8
PART_HOLES_LAYER_TOP
100
AcDbPolyline
 90
        2
 70
         1
 43
0.45
 10
106.395
 20
-5.34
 42
-1.0
 10
106.845
 20
-5.34
 42
-1.0
  0
LWPOLYLINE
  5
13A
100
AcDbEntity
  8
PART_HOLES_LAYER_TOP
100
AcDbPolyline
 90
        2
 70
         1
 43
0.45
 10
103.855
 20
-5.34
 42
-1.0
 10
104.305
 20
-5.34
 42
-1.0
  0
LWPOLYLINE
  5
13B
100
AcDbEntity
  8
PART_HOLES_LAYER_TOP
100
AcDbPolyline
 90
        2
 70
         1
 43
0.45
 10
101.315
 20
-5.34
 42
-1.0
 10
101.765
 20
-5.34
 42
-1.0
  0
LWPOLYLINE
  5
13C
100
AcDbEntity
  8
PART_HOLES_LAYER_TOP
100
AcDbPolyline
 90
        2
 70
         1
 43
0.45
 10
98.775
 20
-5.34
 42
-1.0
 10
99.225
 20
-5.34
 42
-1.0
  0
LWPOLYLINE
  5
13D
100
AcDbEntity
  8
PART_HOLES_LAYER_TOP
100
AcDbPolyline
 90
        2
 70
         1
 43
0.45
 10
96.235
 20
-5.34
 42
-1.0
 10
96.685
 20
-5.34
 42
-1.0
  0
LWPOLYLINE
  5
13E
100
AcDbEntity
  8
PART_HOLES_LAYER_TOP
100
AcDbPolyline
 90
        2
 70
         1
 43
0.45
 10
91.155
 20
-5.34
 42
-1.0
 10
91.605
 20
-5.34
 42
-1.0
  0
LWPOLYLINE
  5
13F
100
AcDbEntity
  8
PART_HOLES_LAYER_TOP
100
AcDbPolyline
 90
        2
 70
         1
 43
0.45
 10
88.615
 20
-5.34
 42
-1.0
 10
89.065
 20
-5.34
 42
-1.0
  0
LWPOLYLINE
  5
140
100
AcDbEntity
  8
PART_HOLES_LAYER_TOP
100
AcDbPolyline
 90
        2
 70
         1
 43
0.45
 10
136.875
 20
-2.8
 42
-1.0
 10
137.325
 20
-2.8
 42
-1.0
  0
LWPOLYLINE
  5
141
100
AcDbEntity
  8
PART_HOLES_LAYER_TOP
100
AcDbPolyline
 90
        2
 70
         1
 43
0.45
 10
134.335
 20
-5.34
 42
-1.0
 10
134.785
 20
-5.34
 42
-1.0
  0
LWPOLYLINE
  5
142
100
AcDbEntity
  8
PART_HOLES_LAYER_TOP
100
AcDbPolyline
 90
        2
 70
         1
 43
0.45
 10
136.875
 20
-5.34
 42
-1.0
 10
137.325
 20
-5.34
 42
-1.0
  0
LWPOLYLINE
  5
143
100
AcDbEntity
  8
PART_HOLES_LAYER_TOP
100
AcDbPolyline
 90
        2
 70
         1
 43
0.45
 10
93.695
 20
-2.8
 42
-1.0
 10
94.145
 20
-2.8
 42
-1.0
  0
LWPOLYLINE
  5
144
100
AcDbEntity
  8
PART_HOLES_LAYER_TOP
100
AcDbPolyline
 90
        2
 70
         1
 43
0.45
 10
93.695
 20
-5.34
 42
-1.0
 10
94.145
 20
-5.34
 42
-1.0
  0
LWPOLYLINE
  5
145
100
AcDbEntity
  8
PART_HOLES_LAYER_TOP
100
AcDbPolyline
 90
        2
 70
         1
 43
0.45
 10
126.715
 20
-2.8
 42
-1.0
 10
127.165
 20
-2.8
 42
-1.0
  0
LWPOLYLINE
  5
146
100
AcDbEntity
  8
PART_HOLES_LAYER_TOP
100
AcDbPolyline
 90
        2
 70
         1
 43
0.45
 10
126.715
 20
-5.34
 42
-1.0
 10
127.165
 20
-5.34
 42
-1.0
  0
LWPOLYLINE
  5
147
100
AcDbEntity
  8
PART_HOLES_LAYER_TOP
100
AcDbPolyline
 90
        2
 70
         1
 43
0.45
 10
124.175
 20
-5.34
 42
-1.0
 10
124.625
 20
-5.34
 42
-1.0
  0
LWPOLYLINE
  5
148
100
AcDbEntity
  8
PART_HOLES_LAYER_TOP
100
AcDbPolyline
 90
        2
 70
         1
 43
0.45
 10
129.255
 20
-2.8
 42
-1.0
 10
129.705
 20
-2.8
 42
-1.0
  0
LWPOLYLINE
  5
149
100
AcDbEntity
  8
PART_HOLES_LAYER_TOP
100
AcDbPolyline
 90
        2
 70
         1
 43
0.45
 10
129.255
 20
-5.34
 42
-1.0
 10
129.705
 20
-5.34
 42
-1.0
  0
LWPOLYLINE
  5
14A
100
AcDbEntity
  8
PART_HOLES_LAYER_TOP
100
AcDbPolyline
 90
        2
 70
         1
 43
0.45
 10
124.175
 20
-2.8
 42
-1.0
 10
124.625
 20
-2.8
 42
-1.0
  0
LWPOLYLINE
  5
14B
100
AcDbEntity
  8
PART_HOLES_LAYER_TOP
100
AcDbPolyline
 90
        2
 70
         1
 43
1.4
 10
154.632315
 20
93.056537
 42
-1.0
 10
156.032315
 20
93.056537
 42
-1.0
  0
LWPOLYLINE
  5
14C
100
AcDbEntity
  8
PART_HOLES_LAYER_TOP
100
AcDbPolyline
 90
        2
 70
         1
 43
1.4
 10
157.632313
 20
88.356537
 42
-1.0
 10
159.032313
 20
88.356537
 42
-1.0
  0
LWPOLYLINE
  5
14D
100
AcDbEntity
  8
PART_HOLES_LAYER_TOP
100
AcDbPolyline
 90
        2
 70
         1
 43
1.4
 10
151.432313
 20
88.356537
 42
-1.0
 10
152.832313
 20
88.356537
 42
-1.0
  0
LWPOLYLINE
  5
14E
100
AcDbEntity
  8
PART_HOLES_LAYER_TOP
100
AcDbPolyline
 90
        2
 70
         1
 43
0.45
 10
86.132583
 20
95.785611
 42
-1.0
 10
86.582583
 20
95.785611
 42
-1.0
  0
LWPOLYLINE
  5
14F
100
AcDbEntity
  8
PART_HOLES_LAYER_TOP
100
AcDbPolyline
 90
        2
 70
         1
 43
0.45
 10
88.672583
 20
98.325611
 42
-1.0
 10
89.122583
 20
98.325611
 42
-1.0
  0
LWPOLYLINE
  5
150
100
AcDbEntity
  8
PART_HOLES_LAYER_TOP
100
AcDbPolyline
 90
        2
 70
         1
 43
0.45
 10
86.132583
 20
98.325611
 42
-1.0
 10
86.582583
 20
98.325611
 42
-1.0
  0
LWPOLYLINE
  5
151
100
AcDbEntity
  8
PART_HOLES_LAYER_TOP
100
AcDbPolyline
 90
        2
 70
         1
 43
0.45
 10
134.392583
 20
98.325611
 42
-1.0
 10
134.842583
 20
98.325611
 42
-1.0
  0
LWPOLYLINE
  5
152
100
AcDbEntity
  8
PART_HOLES_LAYER_TOP
100
AcDbPolyline
 90
        2
 70
         1
 43
0.45
 10
126.772583
 20
98.325611
 42
-1.0
 10
127.222583
 20
98.325611
 42
-1.0
  0
LWPOLYLINE
  5
153
100
AcDbEntity
  8
PART_HOLES_LAYER_TOP
100
AcDbPolyline
 90
        2
 70
         1
 43
0.45
 10
126.772583
 20
95.785611
 42
-1.0
 10
127.222583
 20
95.785611
 42
-1.0
  0
LWPOLYLINE
  5
154
100
AcDbEntity
  8
PART_HOLES_LAYER_TOP
100
AcDbPolyline
 90
        2
 70
         1
 43
0.45
 10
134.392583
 20
95.785611
 42
-1.0
 10
134.842583
 20
95.785611
 42
-1.0
  0
LWPOLYLINE
  5
155
100
AcDbEntity
  8
PART_HOLES_LAYER_TOP
100
AcDbPolyline
 90
        2
 70
         1
 43
0.45
 10
93.752583
 20
95.785611
 42
-1.0
 10
94.202583
 20
95.785611
 42
-1.0
  0
LWPOLYLINE
  5
156
100
AcDbEntity
  8
PART_HOLES_LAYER_TOP
100
AcDbPolyline
 90
        2
 70
         1
 43
0.45
 10
108.992583
 20
98.325611
 42
-1.0
 10
109.442583
 20
98.325611
 42
-1.0
  0
LWPOLYLINE
  5
157
100
AcDbEntity
  8
PART_HOLES_LAYER_TOP
100
AcDbPolyline
 90
        2
 70
         1
 43
0.45
 10
108.992583
 20
95.785611
 42
-1.0
 10
109.442583
 20
95.785611
 42
-1.0
  0
LWPOLYLINE
  5
158
100
AcDbEntity
  8
PART_HOLES_LAYER_TOP
100
AcDbPolyline
 90
        2
 70
         1
 43
0.45
 10
129.312583
 20
98.325611
 42
-1.0
 10
129.762583
 20
98.325611
 42
-1.0
  0
LWPOLYLINE
  5
159
100
AcDbEntity
  8
PART_HOLES_LAYER_TOP
100
AcDbPolyline
 90
        2
 70
         1
 43
0.45
 10
129.312583
 20
95.785611
 42
-1.0
 10
129.762583
 20
95.785611
 42
-1.0
  0
LWPOLYLINE
  5
15A
100
AcDbEntity
  8
PART_HOLES_LAYER_TOP
100
AcDbPolyline
 90
        2
 70
         1
 43
0.45
 10
111.532583
 20
98.325611
 42
-1.0
 10
111.982583
 20
98.325611
 42
-1.0
  0
LWPOLYLINE
  5
15B
100
AcDbEntity
  8
PART_HOLES_LAYER_TOP
100
AcDbPolyline
 90
        2
 70
         1
 43
0.45
 10
111.532583
 20
95.785611
 42
-1.0
 10
111.982583
 20
95.785611
 42
-1.0
  0
LWPOLYLINE
  5
15C
100
AcDbEntity
  8
PART_HOLES_LAYER_TOP
100
AcDbPolyline
 90
        2
 70
         1
 43
0.45
 10
98.832583
 20
95.785611
 42
-1.0
 10
99.282583
 20
95.785611
 42
-1.0
  0
LWPOLYLINE
  5
15D
100
AcDbEntity
  8
PART_HOLES_LAYER_TOP
100
AcDbPolyline
 90
        2
 70
         1
 43
0.45
 10
116.612583
 20
98.325611
 42
-1.0
 10
117.062583
 20
98.325611
 42
-1.0
  0
LWPOLYLINE
  5
15E
100
AcDbEntity
  8
PART_HOLES_LAYER_TOP
100
AcDbPolyline
 90
        2
 70
         1
 43
0.45
 10
114.072583
 20
98.325611
 42
-1.0
 10
114.522583
 20
98.325611
 42
-1.0
  0
LWPOLYLINE
  5
15F
100
AcDbEntity
  8
PART_HOLES_LAYER_TOP
100
AcDbPolyline
 90
        2
 70
         1
 43
0.45
 10
114.072583
 20
95.785611
 42
-1.0
 10
114.522583
 20
95.785611
 42
-1.0
  0
LWPOLYLINE
  5
160
100
AcDbEntity
  8
PART_HOLES_LAYER_TOP
100
AcDbPolyline
 90
        2
 70
         1
 43
0.45
 10
103.912583
 20
95.785611
 42
-1.0
 10
104.362583
 20
95.785611
 42
-1.0
  0
LWPOLYLINE
  5
161
100
AcDbEntity
  8
PART_HOLES_LAYER_TOP
100
AcDbPolyline
 90
        2
 70
         1
 43
0.45
 10
121.692583
 20
95.785611
 42
-1.0
 10
122.142583
 20
95.785611
 42
-1.0
  0
LWPOLYLINE
  5
162
100
AcDbEntity
  8
PART_HOLES_LAYER_TOP
100
AcDbPolyline
 90
        2
 70
         1
 43
0.45
 10
124.232583
 20
95.785611
 42
-1.0
 10
124.682583
 20
95.785611
 42
-1.0
  0
LWPOLYLINE
  5
163
100
AcDbEntity
  8
PART_HOLES_LAYER_TOP
100
AcDbPolyline
 90
        2
 70
         1
 43
0.45
 10
121.692583
 20
98.325611
 42
-1.0
 10
122.142583
 20
98.325611
 42
-1.0
  0
LWPOLYLINE
  5
164
100
AcDbEntity
  8
PART_HOLES_LAYER_TOP
100
AcDbPolyline
 90
        2
 70
         1
 43
0.45
 10
116.612583
 20
95.785611
 42
-1.0
 10
117.062583
 20
95.785611
 42
-1.0
  0
LWPOLYLINE
  5
165
100
AcDbEntity
  8
PART_HOLES_LAYER_TOP
100
AcDbPolyline
 90
        2
 70
         1
 43
0.45
 10
119.152583
 20
98.325611
 42
-1.0
 10
119.602583
 20
98.325611
 42
-1.0
  0
LWPOLYLINE
  5
166
100
AcDbEntity
  8
PART_HOLES_LAYER_TOP
100
AcDbPolyline
 90
        2
 70
         1
 43
0.45
 10
119.152583
 20
95.785611
 42
-1.0
 10
119.602583
 20
95.785611
 42
-1.0
  0
LWPOLYLINE
  5
167
100
AcDbEntity
  8
PART_HOLES_LAYER_TOP
100
AcDbPolyline
 90
        2
 70
         1
 43
0.45
 10
98.832583
 20
98.325611
 42
-1.0
 10
99.282583
 20
98.325611
 42
-1.0
  0
LWPOLYLINE
  5
168
100
AcDbEntity
  8
PART_HOLES_LAYER_TOP
100
AcDbPolyline
 90
        2
 70
         1
 43
0.45
 10
131.852583
 20
95.785611
 42
-1.0
 10
132.302583
 20
95.785611
 42
-1.0
  0
LWPOLYLINE
  5
169
100
AcDbEntity
  8
PART_HOLES_LAYER_TOP
100
AcDbPolyline
 90
        2
 70
         1
 43
0.45
 10
131.852583
 20
98.325611
 42
-1.0
 10
132.302583
 20
98.325611
 42
-1.0
  0
LWPOLYLINE
  5
16A
100
AcDbEntity
  8
PART_HOLES_LAYER_TOP
100
AcDbPolyline
 90
        2
 70
         1
 43
0.45
 10
124.232583
 20
98.325611
 42
-1.0
 10
124.682583
 20
98.325611
 42
-1.0
  0
LWPOLYLINE
  5
16B
100
AcDbEntity
  8
PART_HOLES_LAYER_TOP
100
AcDbPolyline
 90
        2
 70
         1
 43
0.45
 10
106.452583
 20
98.325611
 42
-1.0
 10
106.902583
 20
98.325611
 42
-1.0
  0
LWPOLYLINE
  5
16C
100
AcDbEntity
  8
PART_HOLES_LAYER_TOP
100
AcDbPolyline
 90
        2
 70
         1
 43
0.45
 10
106.452583
 20
95.785611
 42
-1.0
 10
106.902583
 20
95.785611
 42
-1.0
  0
LWPOLYLINE
  5
16D
100
AcDbEntity
  8
PART_HOLES_LAYER_TOP
100
AcDbPolyline
 90
        2
 70
         1
 43
0.45
 10
103.912583
 20
98.325611
 42
-1.0
 10
104.362583
 20
98.325611
 42
-1.0
  0
LWPOLYLINE
  5
16E
100
AcDbEntity
  8
PART_HOLES_LAYER_TOP
100
AcDbPolyline
 90
        2
 70
         1
 43
0.45
 10
101.372583
 20
98.325611
 42
-1.0
 10
101.822583
 20
98.325611
 42
-1.0
  0
LWPOLYLINE
  5
16F
100
AcDbEntity
  8
PART_HOLES_LAYER_TOP
100
AcDbPolyline
 90
        2
 70
         1
 43
0.45
 10
101.372583
 20
95.785611
 42
-1.0
 10
101.822583
 20
95.785611
 42
-1.0
  0
LWPOLYLINE
  5
170
100
AcDbEntity
  8
PART_HOLES_LAYER_TOP
100
AcDbPolyline
 90
        2
 70
         1
 43
0.45
 10
96.292583
 20
98.325611
 42
-1.0
 10
96.742583
 20
98.325611
 42
-1.0
  0
LWPOLYLINE
  5
171
100
AcDbEntity
  8
PART_HOLES_LAYER_TOP
100
AcDbPolyline
 90
        2
 70
         1
 43
0.45
 10
91.212583
 20
98.325611
 42
-1.0
 10
91.662583
 20
98.325611
 42
-1.0
  0
LWPOLYLINE
  5
172
100
AcDbEntity
  8
PART_HOLES_LAYER_TOP
100
AcDbPolyline
 90
        2
 70
         1
 43
0.45
 10
91.212583
 20
95.785611
 42
-1.0
 10
91.662583
 20
95.785611
 42
-1.0
  0
LWPOLYLINE
  5
173
100
AcDbEntity
  8
PART_HOLES_LAYER_TOP
100
AcDbPolyline
 90
        2
 70
         1
 43
0.45
 10
88.672583
 20
95.785611
 42
-1.0
 10
89.122583
 20
95.785611
 42
-1.0
  0
LWPOLYLINE
  5
174
100
AcDbEntity
  8
PART_HOLES_LAYER_TOP
100
AcDbPolyline
 90
        2
 70
         1
 43
0.45
 10
96.292583
 20
95.785611
 42
-1.0
 10
96.742583
 20
95.785611
 42
-1.0
  0
LWPOLYLINE
  5
175
100
AcDbEntity
  8
PART_HOLES_LAYER_TOP
100
AcDbPolyline
 90
        2
 70
         1
 43
0.45
 10
93.752583
 20
98.325611
 42
-1.0
 10
94.202583
 20
98.325611
 42
-1.0
  0
LWPOLYLINE
  5
176
100
AcDbEntity
  8
PART_HOLES_LAYER_TOP
100
AcDbPolyline
 90
        2
 70
         1
 43
0.45
 10
143.995
 20
57.2
 42
-1.0
 10
144.445
 20
57.2
 42
-1.0
  0
LWPOLYLINE
  5
177
100
AcDbEntity
  8
PART_HOLES_LAYER_TOP
100
AcDbPolyline
 90
        2
 70
         1
 43
0.45
 10
149.075
 20
57.2
 42
-1.0
 10
149.525
 20
57.2
 42
-1.0
  0
LWPOLYLINE
  5
178
100
AcDbEntity
  8
PART_HOLES_LAYER_TOP
100
AcDbPolyline
 90
        2
 70
         1
 43
0.45
 10
146.535
 20
57.2
 42
-1.0
 10
146.985
 20
57.2
 42
-1.0
  0
LWPOLYLINE
  5
179
100
AcDbEntity
  8
PART_HOLES_LAYER_TOP
100
AcDbPolyline
 90
        2
 70
         1
 43
0.45
 10
148.675
 20
8.535
 42
-1.0
 10
149.125
 20
8.535
 42
-1.0
  0
LWPOLYLINE
  5
17A
100
AcDbEntity
  8
PART_HOLES_LAYER_TOP
100
AcDbPolyline
 90
        2
 70
         1
 43
0.45
 10
146.135
 20
7.265
 42
-1.0
 10
146.585
 20
7.265
 42
-1.0
  0
LWPOLYLINE
  5
17B
100
AcDbEntity
  8
PART_HOLES_LAYER_TOP
100
AcDbPolyline
 90
        2
 70
         1
 43
1.625
 10
154.4375
 20
2.19
 42
-1.0
 10
156.0625
 20
2.19
 42
-1.0
  0
LWPOLYLINE
  5
17C
100
AcDbEntity
  8
PART_HOLES_LAYER_TOP
100
AcDbPolyline
 90
        2
 70
         1
 43
1.625
 10
154.4375
 20
13.61
 42
-1.0
 10
156.0625
 20
13.61
 42
-1.0
  0
LWPOLYLINE
  5
17D
100
AcDbEntity
  8
PART_HOLES_LAYER_TOP
100
AcDbPolyline
 90
        2
 70
         1
 43
0.95
 10
151.725
 20
15.77
 42
-1.0
 10
152.675
 20
15.77
 42
-1.0
  0
LWPOLYLINE
  5
17E
100
AcDbEntity
  8
PART_HOLES_LAYER_TOP
100
AcDbPolyline
 90
        2
 70
         1
 43
0.45
 10
148.675
 20
11.075
 42
-1.0
 10
149.125
 20
11.075
 42
-1.0
  0
LWPOLYLINE
  5
17F
100
AcDbEntity
  8
PART_HOLES_LAYER_TOP
100
AcDbPolyline
 90
        2
 70
         1
 43
0.45
 10
148.675
 20
3.455
 42
-1.0
 10
149.125
 20
3.455
 42
-1.0
  0
LWPOLYLINE
  5
180
100
AcDbEntity
  8
PART_HOLES_LAYER_TOP
100
AcDbPolyline
 90
        2
 70
         1
 43
0.45
 10
146.135
 20
12.345
 42
-1.0
 10
146.585
 20
12.345
 42
-1.0
  0
LWPOLYLINE
  5
181
100
AcDbEntity
  8
PART_HOLES_LAYER_TOP
100
AcDbPolyline
 90
        2
 70
         1
 43
0.45
 10
146.135
 20
4.725
 42
-1.0
 10
146.585
 20
4.725
 42
-1.0
  0
LWPOLYLINE
  5
182
100
AcDbEntity
  8
PART_HOLES_LAYER_TOP
100
AcDbPolyline
 90
        2
 70
         1
 43
0.6
 10
160.03
 20
1.57
 42
-1.0
 10
160.63
 20
1.57
 42
-1.0
  0
LWPOLYLINE
  5
183
100
AcDbEntity
  8
PART_HOLES_LAYER_TOP
100
AcDbPolyline
 90
        2
 70
         1
 43
0.75
 10
141.155
 20
2.44
 42
-1.0
 10
141.905
 20
2.44
 42
-1.0
  0
LWPOLYLINE
  5
184
100
AcDbEntity
  8
PART_HOLES_LAYER_TOP
100
AcDbPolyline
 90
        2
 70
         1
 43
0.6
 10
158.33
 20
4.11
 42
-1.0
 10
158.93
 20
4.11
 42
-1.0
  0
LWPOLYLINE
  5
185
100
AcDbEntity
  8
PART_HOLES_LAYER_TOP
100
AcDbPolyline
 90
        2
 70
         1
 43
0.75
 10
141.155
 20
4.98
 42
-1.0
 10
141.905
 20
4.98
 42
-1.0
  0
LWPOLYLINE
  5
186
100
AcDbEntity
  8
PART_HOLES_LAYER_TOP
100
AcDbPolyline
 90
        2
 70
         1
 43
0.6
 10
160.03
 20
11.69
 42
-1.0
 10
160.63
 20
11.69
 42
-1.0
  0
LWPOLYLINE
  5
187
100
AcDbEntity
  8
PART_HOLES_LAYER_TOP
100
AcDbPolyline
 90
        2
 70
         1
 43
0.75
 10
141.155
 20
10.82
 42
-1.0
 10
141.905
 20
10.82
 42
-1.0
  0
LWPOLYLINE
  5
188
100
AcDbEntity
  8
PART_HOLES_LAYER_TOP
100
AcDbPolyline
 90
        2
 70
         1
 43
0.6
 10
158.33
 20
14.23
 42
-1.0
 10
158.93
 20
14.23
 42
-1.0
  0
LWPOLYLINE
  5
189
100
AcDbEntity
  8
PART_HOLES_LAYER_TOP
100
AcDbPolyline
 90
        2
 70
         1
 43
0.75
 10
141.155
 20
13.36
 42
-1.0
 10
141.905
 20
13.36
 42
-1.0
  0
LWPOLYLINE
  5
18A
100
AcDbEntity
  8
PART_HOLES_LAYER_TOP
100
AcDbPolyline
 90
        2
 70
         1
 43
0.95
 10
151.725
 20
0.03
 42
-1.0
 10
152.675
 20
0.03
 42
-1.0
  0
LWPOLYLINE
  5
18B
100
AcDbEntity
  8
PART_HOLES_LAYER_TOP
100
AcDbPolyline
 90
        2
 70
         1
 43
0.45
 10
148.675
 20
5.995
 42
-1.0
 10
149.125
 20
5.995
 42
-1.0
  0
LWPOLYLINE
  5
18C
100
AcDbEntity
  8
PART_HOLES_LAYER_TOP
100
AcDbPolyline
 90
        2
 70
         1
 43
0.45
 10
146.135
 20
9.805
 42
-1.0
 10
146.585
 20
9.805
 42
-1.0
  0
LWPOLYLINE
  5
18D
100
AcDbEntity
  8
PART_HOLES_LAYER_TOP
100
AcDbPolyline
 90
        2
 70
         1
 43
0.45
 10
103.403006
 20
48.655354
 42
-1.0
 10
103.853006
 20
48.655354
 42
-1.0
  0
LWPOLYLINE
  5
18E
100
AcDbEntity
  8
PART_HOLES_LAYER_TOP
100
AcDbPolyline
 90
        2
 70
         1
 43
0.45
 10
103.403006
 20
43.775354
 42
-1.0
 10
103.853006
 20
43.775354
 42
-1.0
  0
LWPOLYLINE
  5
18F
100
AcDbEntity
  8
PART_HOLES_LAYER_TOP
100
AcDbPolyline
 90
        2
 70
         1
 43
0.45
 10
96.975
 20
91.7
 42
-1.0
 10
97.425
 20
91.7
 42
-1.0
  0
LWPOLYLINE
  5
190
100
AcDbEntity
  8
PART_HOLES_LAYER_TOP
100
AcDbPolyline
 90
        2
 70
         1
 43
0.45
 10
99.515
 20
91.7
 42
-1.0
 10
99.965
 20
91.7
 42
-1.0
  0
LWPOLYLINE
  5
191
100
AcDbEntity
  8
PART_HOLES_LAYER_TOP
100
AcDbPolyline
 90
        2
 70
         1
 43
0.45
 10
102.055
 20
91.7
 42
-1.0
 10
102.505
 20
91.7
 42
-1.0
  0
LWPOLYLINE
  5
192
100
AcDbEntity
  8
PART_HOLES_LAYER_TOP
100
AcDbPolyline
 90
        2
 70
         1
 43
0.45
 10
155.475
 20
49.4
 42
-1.0
 10
155.925
 20
49.4
 42
-1.0
  0
LWPOLYLINE
  5
193
100
AcDbEntity
  8
PART_HOLES_LAYER_TOP
100
AcDbPolyline
 90
        2
 70
         1
 43
0.45
 10
152.935
 20
49.4
 42
-1.0
 10
153.385
 20
49.4
 42
-1.0
  0
LWPOLYLINE
  5
194
100
AcDbEntity
  8
PART_HOLES_LAYER_TOP
100
AcDbPolyline
 90
        2
 70
         1
 43
0.45
 10
153.135469
 20
78.689351
 42
-1.0
 10
153.585469
 20
78.689351
 42
-1.0
  0
LWPOLYLINE
  5
195
100
AcDbEntity
  8
PART_HOLES_LAYER_TOP
100
AcDbPolyline
 90
        2
 70
         1
 43
0.45
 10
150.595469
 20
76.149351
 42
-1.0
 10
151.045469
 20
76.149351
 42
-1.0
  0
LWPOLYLINE
  5
196
100
AcDbEntity
  8
PART_HOLES_LAYER_TOP
100
AcDbPolyline
 90
        2
 70
         1
 43
0.45
 10
153.135469
 20
76.149351
 42
-1.0
 10
153.585469
 20
76.149351
 42
-1.0
  0
LWPOLYLINE
  5
197
100
AcDbEntity
  8
PART_HOLES_LAYER_TOP
100
AcDbPolyline
 90
        2
 70
         1
 43
0.45
 10
150.595469
 20
78.689351
 42
-1.0
 10
151.045469
 20
78.689351
 42
-1.0
  0
LWPOLYLINE
  5
198
100
AcDbEntity
  8
PART_HOLES_LAYER_TOP
100
AcDbPolyline
 90
        2
 70
         1
 43
1.25
 10
154.995469
 20
83.489351
 42
-1.0
 10
156.245469
 20
83.489351
 42
-1.0
  0
LWPOLYLINE
  5
199
100
AcDbEntity
  8
PART_HOLES_LAYER_TOP
100
AcDbPolyline
 90
        2
 70
         1
 43
1.25
 10
154.995469
 20
71.489351
 42
-1.0
 10
156.245469
 20
71.489351
 42
-1.0
  0
LWPOLYLINE
  5
19A
100
AcDbEntity
  8
PART_HOLES_LAYER_TOP
100
AcDbPolyline
 90
        2
 70
         1
 43
0.45
 10
116.775
 20
1.4
 42
-1.0
 10
117.225
 20
1.4
 42
-1.0
  0
LWPOLYLINE
  5
19B
100
AcDbEntity
  8
PART_HOLES_LAYER_TOP
100
AcDbPolyline
 90
        2
 70
         1
 43
0.45
 10
114.235
 20
1.4
 42
-1.0
 10
114.685
 20
1.4
 42
-1.0
  0
LWPOLYLINE
  5
19C
100
AcDbEntity
  8
PART_HOLES_LAYER_TOP
100
AcDbPolyline
 90
        2
 70
         1
 43
0.45
 10
161.675
 20
68.8
 42
-1.0
 10
162.125
 20
68.8
 42
-1.0
  0
LWPOLYLINE
  5
19D
100
AcDbEntity
  8
PART_HOLES_LAYER_TOP
100
AcDbPolyline
 90
        2
 70
         1
 43
0.45
 10
159.135
 20
68.8
 42
-1.0
 10
159.585
 20
68.8
 42
-1.0
  0
LWPOLYLINE
  5
19E
100
AcDbEntity
  8
PART_HOLES_LAYER_TOP
100
AcDbPolyline
 90
        2
 70
         1
 43
0.45
 10
159.235
 20
49.4
 42
-1.0
 10
159.685
 20
49.4
 42
-1.0
  0
LWPOLYLINE
  5
19F
100
AcDbEntity
  8
PART_HOLES_LAYER_TOP
100
AcDbPolyline
 90
        2
 70
         1
 43
0.45
 10
161.775
 20
49.4
 42
-1.0
 10
162.225
 20
49.4
 42
-1.0
  0
LWPOLYLINE
  5
1A0
100
AcDbEntity
  8
PART_HOLES_LAYER_TOP
100
AcDbPolyline
 90
        2
 70
         1
 43
0.45
 10
82.884485
 20
5.615609
 42
-1.0
 10
83.334485
 20
5.615609
 42
-1.0
  0
LWPOLYLINE
  5
1A1
100
AcDbEntity
  8
PART_HOLES_LAYER_TOP
100
AcDbPolyline
 90
        2
 70
         1
 43
0.45
 10
82.884485
 20
3.075609
 42
-1.0
 10
83.334485
 20
3.075609
 42
-1.0
  0
LWPOLYLINE
  5
1A2
100
AcDbEntity
  8
PART_HOLES_LAYER_TOP
100
AcDbPolyline
 90
        2
 70
         1
 43
0.45
 10
80.344485
 20
5.615609
 42
-1.0
 10
80.794485
 20
5.615609
 42
-1.0
  0
LWPOLYLINE
  5
1A3
100
AcDbEntity
  8
PART_HOLES_LAYER_TOP
100
AcDbPolyline
 90
        2
 70
         1
 43
0.45
 10
80.344485
 20
3.075609
 42
-1.0
 10
80.794485
 20
3.075609
 42
-1.0
  0
LWPOLYLINE
  5
1A4
100
AcDbEntity
  8
PART_HOLES_LAYER_TOP
100
AcDbPolyline
 90
        2
 70
         1
 43
0.45
 10
82.884485
 20
38.635609
 42
-1.0
 10
83.334485
 20
38.635609
 42
-1.0
  0
LWPOLYLINE
  5
1A5
100
AcDbEntity
  8
PART_HOLES_LAYER_TOP
100
AcDbPolyline
 90
        2
 70
         1
 43
0.45
 10
80.344485
 20
15.775609
 42
-1.0
 10
80.794485
 20
15.775609
 42
-1.0
  0
LWPOLYLINE
  5
1A6
100
AcDbEntity
  8
PART_HOLES_LAYER_TOP
100
AcDbPolyline
 90
        2
 70
         1
 43
0.45
 10
82.884485
 20
20.855609
 42
-1.0
 10
83.334485
 20
20.855609
 42
-1.0
  0
LWPOLYLINE
  5
1A7
100
AcDbEntity
  8
PART_HOLES_LAYER_TOP
100
AcDbPolyline
 90
        2
 70
         1
 43
0.45
 10
82.884485
 20
23.395609
 42
-1.0
 10
83.334485
 20
23.395609
 42
-1.0
  0
LWPOLYLINE
  5
1A8
100
AcDbEntity
  8
PART_HOLES_LAYER_TOP
100
AcDbPolyline
 90
        2
 70
         1
 43
0.45
 10
80.344485
 20
33.555609
 42
-1.0
 10
80.794485
 20
33.555609
 42
-1.0
  0
LWPOLYLINE
  5
1A9
100
AcDbEntity
  8
PART_HOLES_LAYER_TOP
100
AcDbPolyline
 90
        2
 70
         1
 43
0.45
 10
82.884485
 20
33.555609
 42
-1.0
 10
83.334485
 20
33.555609
 42
-1.0
  0
LWPOLYLINE
  5
1AA
100
AcDbEntity
  8
PART_HOLES_LAYER_TOP
100
AcDbPolyline
 90
        2
 70
         1
 43
0.45
 10
80.344485
 20
31.015609
 42
-1.0
 10
80.794485
 20
31.015609
 42
-1.0
  0
LWPOLYLINE
  5
1AB
100
AcDbEntity
  8
PART_HOLES_LAYER_TOP
100
AcDbPolyline
 90
        2
 70
         1
 43
0.45
 10
82.884485
 20
31.015609
 42
-1.0
 10
83.334485
 20
31.015609
 42
-1.0
  0
LWPOLYLINE
  5
1AC
100
AcDbEntity
  8
PART_HOLES_LAYER_TOP
100
AcDbPolyline
 90
        2
 70
         1
 43
0.45
 10
80.344485
 20
36.095609
 42
-1.0
 10
80.794485
 20
36.095609
 42
-1.0
  0
LWPOLYLINE
  5
1AD
100
AcDbEntity
  8
PART_HOLES_LAYER_TOP
100
AcDbPolyline
 90
        2
 70
         1
 43
0.45
 10
82.884485
 20
36.095609
 42
-1.0
 10
83.334485
 20
36.095609
 42
-1.0
  0
LWPOLYLINE
  5
1AE
100
AcDbEntity
  8
PART_HOLES_LAYER_TOP
100
AcDbPolyline
 90
        2
 70
         1
 43
0.45
 10
80.344485
 20
51.335609
 42
-1.0
 10
80.794485
 20
51.335609
 42
-1.0
  0
LWPOLYLINE
  5
1AF
100
AcDbEntity
  8
PART_HOLES_LAYER_TOP
100
AcDbPolyline
 90
        2
 70
         1
 43
0.45
 10
82.884485
 20
13.235609
 42
-1.0
 10
83.334485
 20
13.235609
 42
-1.0
  0
LWPOLYLINE
  5
1B0
100
AcDbEntity
  8
PART_HOLES_LAYER_TOP
100
AcDbPolyline
 90
        2
 70
         1
 43
0.45
 10
80.344485
 20
13.235609
 42
-1.0
 10
80.794485
 20
13.235609
 42
-1.0
  0
LWPOLYLINE
  5
1B1
100
AcDbEntity
  8
PART_HOLES_LAYER_TOP
100
AcDbPolyline
 90
        2
 70
         1
 43
0.45
 10
82.884485
 20
43.715609
 42
-1.0
 10
83.334485
 20
43.715609
 42
-1.0
  0
LWPOLYLINE
  5
1B2
100
AcDbEntity
  8
PART_HOLES_LAYER_TOP
100
AcDbPolyline
 90
        2
 70
         1
 43
0.45
 10
80.344485
 20
38.635609
 42
-1.0
 10
80.794485
 20
38.635609
 42
-1.0
  0
LWPOLYLINE
  5
1B3
100
AcDbEntity
  8
PART_HOLES_LAYER_TOP
100
AcDbPolyline
 90
        2
 70
         1
 43
0.45
 10
82.884485
 20
51.335609
 42
-1.0
 10
83.334485
 20
51.335609
 42
-1.0
  0
LWPOLYLINE
  5
1B4
100
AcDbEntity
  8
PART_HOLES_LAYER_TOP
100
AcDbPolyline
 90
        2
 70
         1
 43
0.45
 10
80.344485
 20
48.795609
 42
-1.0
 10
80.794485
 20
48.795609
 42
-1.0
  0
LWPOLYLINE
  5
1B5
100
AcDbEntity
  8
PART_HOLES_LAYER_TOP
100
AcDbPolyline
 90
        2
 70
         1
 43
0.45
 10
82.884485
 20
48.795609
 42
-1.0
 10
83.334485
 20
48.795609
 42
-1.0
  0
LWPOLYLINE
  5
1B6
100
AcDbEntity
  8
PART_HOLES_LAYER_TOP
100
AcDbPolyline
 90
        2
 70
         1
 43
0.45
 10
80.344485
 20
46.255609
 42
-1.0
 10
80.794485
 20
46.255609
 42
-1.0
  0
LWPOLYLINE
  5
1B7
100
AcDbEntity
  8
PART_HOLES_LAYER_TOP
100
AcDbPolyline
 90
        2
 70
         1
 43
0.45
 10
82.884485
 20
46.255609
 42
-1.0
 10
83.334485
 20
46.255609
 42
-1.0
  0
LWPOLYLINE
  5
1B8
100
AcDbEntity
  8
PART_HOLES_LAYER_TOP
100
AcDbPolyline
 90
        2
 70
         1
 43
0.45
 10
80.344485
 20
43.715609
 42
-1.0
 10
80.794485
 20
43.715609
 42
-1.0
  0
LWPOLYLINE
  5
1B9
100
AcDbEntity
  8
PART_HOLES_LAYER_TOP
100
AcDbPolyline
 90
        2
 70
         1
 43
0.45
 10
80.344485
 20
41.175609
 42
-1.0
 10
80.794485
 20
41.175609
 42
-1.0
  0
LWPOLYLINE
  5
1BA
100
AcDbEntity
  8
PART_HOLES_LAYER_TOP
100
AcDbPolyline
 90
        2
 70
         1
 43
0.45
 10
82.884485
 20
41.175609
 42
-1.0
 10
83.334485
 20
41.175609
 42
-1.0
  0
LWPOLYLINE
  5
1BB
100
AcDbEntity
  8
PART_HOLES_LAYER_TOP
100
AcDbPolyline
 90
        2
 70
         1
 43
0.45
 10
80.344485
 20
20.855609
 42
-1.0
 10
80.794485
 20
20.855609
 42
-1.0
  0
LWPOLYLINE
  5
1BC
100
AcDbEntity
  8
PART_HOLES_LAYER_TOP
100
AcDbPolyline
 90
        2
 70
         1
 43
0.45
 10
80.344485
 20
18.315609
 42
-1.0
 10
80.794485
 20
18.315609
 42
-1.0
  0
LWPOLYLINE
  5
1BD
100
AcDbEntity
  8
PART_HOLES_LAYER_TOP
100
AcDbPolyline
 90
        2
 70
         1
 43
0.45
 10
80.344485
 20
8.155609
 42
-1.0
 10
80.794485
 20
8.155609
 42
-1.0
  0
LWPOLYLINE
  5
1BE
100
AcDbEntity
  8
PART_HOLES_LAYER_TOP
100
AcDbPolyline
 90
        2
 70
         1
 43
0.45
 10
82.884485
 20
18.315609
 42
-1.0
 10
83.334485
 20
18.315609
 42
-1.0
  0
LWPOLYLINE
  5
1BF
100
AcDbEntity
  8
PART_HOLES_LAYER_TOP
100
AcDbPolyline
 90
        2
 70
         1
 43
0.45
 10
80.344485
 20
28.475609
 42
-1.0
 10
80.794485
 20
28.475609
 42
-1.0
  0
LWPOLYLINE
  5
1C0
100
AcDbEntity
  8
PART_HOLES_LAYER_TOP
100
AcDbPolyline
 90
        2
 70
         1
 43
0.45
 10
82.884485
 20
28.475609
 42
-1.0
 10
83.334485
 20
28.475609
 42
-1.0
  0
LWPOLYLINE
  5
1C1
100
AcDbEntity
  8
PART_HOLES_LAYER_TOP
100
AcDbPolyline
 90
        2
 70
         1
 43
0.45
 10
80.344485
 20
25.935609
 42
-1.0
 10
80.794485
 20
25.935609
 42
-1.0
  0
LWPOLYLINE
  5
1C2
100
AcDbEntity
  8
PART_HOLES_LAYER_TOP
100
AcDbPolyline
 90
        2
 70
         1
 43
0.45
 10
82.884485
 20
25.935609
 42
-1.0
 10
83.334485
 20
25.935609
 42
-1.0
  0
LWPOLYLINE
  5
1C3
100
AcDbEntity
  8
PART_HOLES_LAYER_TOP
100
AcDbPolyline
 90
        2
 70
         1
 43
0.45
 10
80.344485
 20
23.395609
 42
-1.0
 10
80.794485
 20
23.395609
 42
-1.0
  0
LWPOLYLINE
  5
1C4
100
AcDbEntity
  8
PART_HOLES_LAYER_TOP
100
AcDbPolyline
 90
        2
 70
         1
 43
0.45
 10
82.884485
 20
8.155609
 42
-1.0
 10
83.334485
 20
8.155609
 42
-1.0
  0
LWPOLYLINE
  5
1C5
100
AcDbEntity
  8
PART_HOLES_LAYER_TOP
100
AcDbPolyline
 90
        2
 70
         1
 43
0.45
 10
82.884485
 20
10.695609
 42
-1.0
 10
83.334485
 20
10.695609
 42
-1.0
  0
LWPOLYLINE
  5
1C6
100
AcDbEntity
  8
PART_HOLES_LAYER_TOP
100
AcDbPolyline
 90
        2
 70
         1
 43
0.45
 10
80.344485
 20
10.695609
 42
-1.0
 10
80.794485
 20
10.695609
 42
-1.0
  0
LWPOLYLINE
  5
1C7
100
AcDbEntity
  8
PART_HOLES_LAYER_TOP
100
AcDbPolyline
 90
        2
 70
         1
 43
0.45
 10
82.884485
 20
15.775609
 42
-1.0
 10
83.334485
 20
15.775609
 42
-1.0
  0
LWPOLYLINE
  5
1C8
100
AcDbEntity
  8
PART_HOLES_LAYER_TOP
100
AcDbPolyline
 90
        2
 70
         1
 43
0.45
 10
103.160304
 20
55.980856
 42
-1.0
 10
103.610304
 20
55.980856
 42
-1.0
  0
LWPOLYLINE
  5
1C9
100
AcDbEntity
  8
PART_HOLES_LAYER_TOP
100
AcDbPolyline
 90
        2
 70
         1
 43
0.45
 10
103.160304
 20
53.440854
 42
-1.0
 10
103.610304
 20
53.440854
 42
-1.0
  0
LWPOLYLINE
  5
1CA
100
AcDbEntity
  8
PART_HOLES_LAYER_TOP
100
AcDbPolyline
 90
        2
 70
         1
 43
0.45
 10
143.995
 20
54.6
 42
-1.0
 10
144.445
 20
54.6
 42
-1.0
  0
LWPOLYLINE
  5
1CB
100
AcDbEntity
  8
PART_HOLES_LAYER_TOP
100
AcDbPolyline
 90
        2
 70
         1
 43
0.45
 10
149.075
 20
54.6
 42
-1.0
 10
149.525
 20
54.6
 42
-1.0
  0
LWPOLYLINE
  5
1CC
100
AcDbEntity
  8
PART_HOLES_LAYER_TOP
100
AcDbPolyline
 90
        2
 70
         1
 43
0.45
 10
146.535
 20
54.6
 42
-1.0
 10
146.985
 20
54.6
 42
-1.0
  0
LWPOLYLINE
  5
1CD
100
AcDbEntity
  8
PART_HOLES_LAYER_TOP
100
AcDbPolyline
 90
        2
 70
         1
 43
0.45
 10
152.815
 20
62.96
 42
-1.0
 10
153.265
 20
62.96
 42
-1.0
  0
LWPOLYLINE
  5
1CE
100
AcDbEntity
  8
PART_HOLES_LAYER_TOP
100
AcDbPolyline
 90
        2
 70
         1
 43
0.45
 10
152.815
 20
55.96
 42
-1.0
 10
153.265
 20
55.96
 42
-1.0
  0
LWPOLYLINE
  5
1CF
100
AcDbEntity
  8
PART_HOLES_LAYER_TOP
100
AcDbPolyline
 90
        2
 70
         1
 43
0.45
 10
152.815
 20
58.46
 42
-1.0
 10
153.265
 20
58.46
 42
-1.0
  0
LWPOLYLINE
  5
1D0
100
AcDbEntity
  8
PART_HOLES_LAYER_TOP
100
AcDbPolyline
 90
        2
 70
         1
 43
0.45
 10
152.815
 20
60.46
 42
-1.0
 10
153.265
 20
60.46
 42
-1.0
  0
LWPOLYLINE
  5
1D1
100
AcDbEntity
  8
PART_HOLES_LAYER_TOP
100
AcDbPolyline
 90
        2
 70
         1
 43
1.25
 10
155.135
 20
52.86
 42
-1.0
 10
156.385
 20
52.86
 42
-1.0
  0
LWPOLYLINE
  5
1D2
100
AcDbEntity
  8
PART_HOLES_LAYER_TOP
100
AcDbPolyline
 90
        2
 70
         1
 43
1.25
 10
155.135
 20
66.06
 42
-1.0
 10
156.385
 20
66.06
 42
-1.0
  0
LWPOLYLINE
  5
1D3
100
AcDbEntity
  8
PART_HOLES_LAYER_TOP
100
AcDbPolyline
 90
        2
 70
         1
 43
0.45
 10
143.995
 20
63.8
 42
-1.0
 10
144.445
 20
63.8
 42
-1.0
  0
LWPOLYLINE
  5
1D4
100
AcDbEntity
  8
PART_HOLES_LAYER_TOP
100
AcDbPolyline
 90
        2
 70
         1
 43
0.45
 10
149.075
 20
63.8
 42
-1.0
 10
149.525
 20
63.8
 42
-1.0
  0
LWPOLYLINE
  5
1D5
100
AcDbEntity
  8
PART_HOLES_LAYER_TOP
100
AcDbPolyline
 90
        2
 70
         1
 43
0.45
 10
146.535
 20
63.8
 42
-1.0
 10
146.985
 20
63.8
 42
-1.0
  0
LWPOLYLINE
  5
1D6
100
AcDbEntity
  8
PART_HOLES_LAYER_TOP
100
AcDbPolyline
 90
        2
 70
         1
 43
0.45
 10
145.631915
 20
32.120213
 42
-1.0
 10
146.081915
 20
32.120213
 42
-1.0
  0
LWPOLYLINE
  5
1D7
100
AcDbEntity
  8
PART_HOLES_LAYER_TOP
100
AcDbPolyline
 90
        2
 70
         1
 43
0.45
 10
148.171915
 20
42.280213
 42
-1.0
 10
148.621915
 20
42.280213
 42
-1.0
  0
LWPOLYLINE
  5
1D8
100
AcDbEntity
  8
PART_HOLES_LAYER_TOP
100
AcDbPolyline
 90
        2
 70
         1
 43
0.45
 10
148.171915
 20
39.740213
 42
-1.0
 10
148.621915
 20
39.740213
 42
-1.0
  0
LWPOLYLINE
  5
1D9
100
AcDbEntity
  8
PART_HOLES_LAYER_TOP
100
AcDbPolyline
 90
        2
 70
         1
 43
0.45
 10
148.171915
 20
37.200213
 42
-1.0
 10
148.621915
 20
37.200213
 42
-1.0
  0
LWPOLYLINE
  5
1DA
100
AcDbEntity
  8
PART_HOLES_LAYER_TOP
100
AcDbPolyline
 90
        2
 70
         1
 43
0.45
 10
148.171915
 20
34.660213
 42
-1.0
 10
148.621915
 20
34.660213
 42
-1.0
  0
LWPOLYLINE
  5
1DB
100
AcDbEntity
  8
PART_HOLES_LAYER_TOP
100
AcDbPolyline
 90
        2
 70
         1
 43
0.45
 10
148.171915
 20
32.120213
 42
-1.0
 10
148.621915
 20
32.120213
 42
-1.0
  0
LWPOLYLINE
  5
1DC
100
AcDbEntity
  8
PART_HOLES_LAYER_TOP
100
AcDbPolyline
 90
        2
 70
         1
 43
0.45
 10
148.171915
 20
29.580213
 42
-1.0
 10
148.621915
 20
29.580213
 42
-1.0
  0
LWPOLYLINE
  5
1DD
100
AcDbEntity
  8
PART_HOLES_LAYER_TOP
100
AcDbPolyline
 90
        2
 70
         1
 43
0.45
 10
148.171915
 20
27.040213
 42
-1.0
 10
148.621915
 20
27.040213
 42
-1.0
  0
LWPOLYLINE
  5
1DE
100
AcDbEntity
  8
PART_HOLES_LAYER_TOP
100
AcDbPolyline
 90
        2
 70
         1
 43
0.45
 10
148.171915
 20
24.500213
 42
-1.0
 10
148.621915
 20
24.500213
 42
-1.0
  0
LWPOLYLINE
  5
1DF
100
AcDbEntity
  8
PART_HOLES_LAYER_TOP
100
AcDbPolyline
 90
        2
 70
         1
 43
0.45
 10
148.171915
 20
21.960213
 42
-1.0
 10
148.621915
 20
21.960213
 42
-1.0
  0
LWPOLYLINE
  5
1E0
100
AcDbEntity
  8
PART_HOLES_LAYER_TOP
100
AcDbPolyline
 90
        2
 70
         1
 43
0.45
 10
145.631915
 20
44.820213
 42
-1.0
 10
146.081915
 20
44.820213
 42
-1.0
  0
LWPOLYLINE
  5
1E1
100
AcDbEntity
  8
PART_HOLES_LAYER_TOP
100
AcDbPolyline
 90
        2
 70
         1
 43
0.45
 10
148.171915
 20
44.820213
 42
-1.0
 10
148.621915
 20
44.820213
 42
-1.0
  0
LWPOLYLINE
  5
1E2
100
AcDbEntity
  8
PART_HOLES_LAYER_TOP
100
AcDbPolyline
 90
        2
 70
         1
 43
0.45
 10
145.631915
 20
27.040213
 42
-1.0
 10
146.081915
 20
27.040213
 42
-1.0
  0
LWPOLYLINE
  5
1E3
100
AcDbEntity
  8
PART_HOLES_LAYER_TOP
100
AcDbPolyline
 90
        2
 70
         1
 43
0.45
 10
145.631915
 20
39.740213
 42
-1.0
 10
146.081915
 20
39.740213
 42
-1.0
  0
LWPOLYLINE
  5
1E4
100
AcDbEntity
  8
PART_HOLES_LAYER_TOP
100
AcDbPolyline
 90
        2
 70
         1
 43
0.45
 10
145.631915
 20
29.580213
 42
-1.0
 10
146.081915
 20
29.580213
 42
-1.0
  0
LWPOLYLINE
  5
1E5
100
AcDbEntity
  8
PART_HOLES_LAYER_TOP
100
AcDbPolyline
 90
        2
 70
         1
 43
0.45
 10
145.631915
 20
37.200213
 42
-1.0
 10
146.081915
 20
37.200213
 42
-1.0
  0
LWPOLYLINE
  5
1E6
100
AcDbEntity
  8
PART_HOLES_LAYER_TOP
100
AcDbPolyline
 90
        2
 70
         1
 43
0.45
 10
145.631915
 20
42.280213
 42
-1.0
 10
146.081915
 20
42.280213
 42
-1.0
  0
LWPOLYLINE
  5
1E7
100
AcDbEntity
  8
PART_HOLES_LAYER_TOP
100
AcDbPolyline
 90
        2
 70
         1
 43
0.45
 10
145.631915
 20
34.660213
 42
-1.0
 10
146.081915
 20
34.660213
 42
-1.0
  0
LWPOLYLINE
  5
1E8
100
AcDbEntity
  8
PART_HOLES_LAYER_TOP
100
AcDbPolyline
 90
        2
 70
         1
 43
0.45
 10
145.631915
 20
24.500213
 42
-1.0
 10
146.081915
 20
24.500213
 42
-1.0
  0
LWPOLYLINE
  5
1E9
100
AcDbEntity
  8
PART_HOLES_LAYER_TOP
100
AcDbPolyline
 90
        2
 70
         1
 43
0.45
 10
145.631915
 20
21.960213
 42
-1.0
 10
146.081915
 20
21.960213
 42
-1.0
  0
LWPOLYLINE
  5
1EA
100
AcDbEntity
  8
PART_HOLES_LAYER_TOP
100
AcDbPolyline
 90
        2
 70
         1
 43
0.45
 10
143.995
 20
61.2
 42
-1.0
 10
144.445
 20
61.2
 42
-1.0
  0
LWPOLYLINE
  5
1EB
100
AcDbEntity
  8
PART_HOLES_LAYER_TOP
100
AcDbPolyline
 90
        2
 70
         1
 43
0.45
 10
149.075
 20
61.2
 42
-1.0
 10
149.525
 20
61.2
 42
-1.0
  0
LWPOLYLINE
  5
1EC
100
AcDbEntity
  8
PART_HOLES_LAYER_TOP
100
AcDbPolyline
 90
        2
 70
         1
 43
0.45
 10
146.535
 20
61.2
 42
-1.0
 10
146.985
 20
61.2
 42
-1.0
  0
CIRCLE
  5
1ED
100
AcDbEntity
  8
PART_PADS_LAYER_TOP
100
AcDbCircle
 10
153.56053
 20
37.48604
 30
0.0
 40
0.9
  0
CIRCLE
  5
1EE
100
AcDbEntity
  8
PART_PADS_LAYER_TOP
100
AcDbCircle
 10
156.40053
 20
33.33104
 30
0.0
 40
0.9
  0
CIRCLE
  5
1EF
100
AcDbEntity
  8
PART_PADS_LAYER_TOP
100
AcDbCircle
 10
156.40053
 20
36.10104
 30
0.0
 40
0.9
  0
CIRCLE
  5
1F0
100
AcDbEntity
  8
PART_PADS_LAYER_TOP
100
AcDbCircle
 10
154.98053
 20
44.44604
 30
0.0
 40
1.9
  0
CIRCLE
  5
1F1
100
AcDbEntity
  8
PART_PADS_LAYER_TOP
100
AcDbCircle
 10
154.98053
 20
19.44604
 30
0.0
 40
1.9
  0
CIRCLE
  5
1F2
100
AcDbEntity
  8
PART_PADS_LAYER_TOP
100
AcDbCircle
 10
156.40053
 20
30.56104
 30
0.0
 40
0.9
  0
CIRCLE
  5
1F3
100
AcDbEntity
  8
PART_PADS_LAYER_TOP
100
AcDbCircle
 10
153.56053
 20
26.40604
 30
0.0
 40
0.9
  0
CIRCLE
  5
1F4
100
AcDbEntity
  8
PART_PADS_LAYER_TOP
100
AcDbCircle
 10
153.56053
 20
34.71604
 30
0.0
 40
0.9
  0
CIRCLE
  5
1F5
100
AcDbEntity
  8
PART_PADS_LAYER_TOP
100
AcDbCircle
 10
156.40053
 20
27.79104
 30
0.0
 40
0.9
  0
CIRCLE
  5
1F6
100
AcDbEntity
  8
PART_PADS_LAYER_TOP
100
AcDbCircle
 10
153.56053
 20
29.17604
 30
0.0
 40
0.9
  0
CIRCLE
  5
1F7
100
AcDbEntity
  8
PART_PADS_LAYER_TOP
100
AcDbCircle
 10
153.56053
 20
31.94604
 30
0.0
 40
0.9
  0
CIRCLE
  5
1F8
100
AcDbEntity
  8
PART_PADS_LAYER_TOP
100
AcDbCircle
 10
99.5
 20
41.38
 30
0.0
 40
0.7
  0
CIRCLE
  5
1F9
100
AcDbEntity
  8
PART_PADS_LAYER_TOP
100
AcDbCircle
 10
99.5
 20
38.84
 30
0.0
 40
0.7
  0
LWPOLYLINE
  5
1FA
100
AcDbEntity
  8
PART_PADS_LAYER_TOP
100
AcDbPolyline
 90
        4
 70
         1
 10
98.8
 20
35.6
 10
98.8
 20
37.0
 10
100.2
 20
37.0
 10
100.2
 20
35.6
  0
CIRCLE
  5
1FB
100
AcDbEntity
  8
PART_PADS_LAYER_TOP
100
AcDbCircle
 10
134.56
 20
-2.8
 30
0.0
 40
0.75
  0
CIRCLE
  5
1FC
100
AcDbEntity
  8
PART_PADS_LAYER_TOP
100
AcDbCircle
 10
132.02
 20
-2.8
 30
0.0
 40
0.75
  0
CIRCLE
  5
1FD
100
AcDbEntity
  8
PART_PADS_LAYER_TOP
100
AcDbCircle
 10
121.86
 20
-2.8
 30
0.0
 40
0.75
  0
CIRCLE
  5
1FE
100
AcDbEntity
  8
PART_PADS_LAYER_TOP
100
AcDbCircle
 10
119.32
 20
-2.8
 30
0.0
 40
0.75
  0
CIRCLE
  5
1FF
100
AcDbEntity
  8
PART_PADS_LAYER_TOP
100
AcDbCircle
 10
116.78
 20
-2.8
 30
0.0
 40
0.75
  0
CIRCLE
  5
200
100
AcDbEntity
  8
PART_PADS_LAYER_TOP
100
AcDbCircle
 10
114.24
 20
-2.8
 30
0.0
 40
0.75
  0
CIRCLE
  5
201
100
AcDbEntity
  8
PART_PADS_LAYER_TOP
100
AcDbCircle
 10
111.7
 20
-2.8
 30
0.0
 40
0.75
  0
CIRCLE
  5
202
100
AcDbEntity
  8
PART_PADS_LAYER_TOP
100
AcDbCircle
 10
109.16
 20
-2.8
 30
0.0
 40
0.75
  0
CIRCLE
  5
203
100
AcDbEntity
  8
PART_PADS_LAYER_TOP
100
AcDbCircle
 10
106.62
 20
-2.8
 30
0.0
 40
0.75
  0
CIRCLE
  5
204
100
AcDbEntity
  8
PART_PADS_LAYER_TOP
100
AcDbCircle
 10
104.08
 20
-2.8
 30
0.0
 40
0.75
  0
CIRCLE
  5
205
100
AcDbEntity
  8
PART_PADS_LAYER_TOP
100
AcDbCircle
 10
101.54
 20
-2.8
 30
0.0
 40
0.75
  0
CIRCLE
  5
206
100
AcDbEntity
  8
PART_PADS_LAYER_TOP
100
AcDbCircle
 10
99.0
 20
-2.8
 30
0.0
 40
0.75
  0
CIRCLE
  5
207
100
AcDbEntity
  8
PART_PADS_LAYER_TOP
100
AcDbCircle
 10
96.46
 20
-2.8
 30
0.0
 40
0.75
  0
CIRCLE
  5
208
100
AcDbEntity
  8
PART_PADS_LAYER_TOP
100
AcDbCircle
 10
91.38
 20
-2.8
 30
0.0
 40
0.75
  0
CIRCLE
  5
209
100
AcDbEntity
  8
PART_PADS_LAYER_TOP
100
AcDbCircle
 10
88.84
 20
-2.8
 30
0.0
 40
0.75
  0
CIRCLE
  5
20A
100
AcDbEntity
  8
PART_PADS_LAYER_TOP
100
AcDbCircle
 10
132.02
 20
-5.34
 30
0.0
 40
0.75
  0
CIRCLE
  5
20B
100
AcDbEntity
  8
PART_PADS_LAYER_TOP
100
AcDbCircle
 10
121.86
 20
-5.34
 30
0.0
 40
0.75
  0
CIRCLE
  5
20C
100
AcDbEntity
  8
PART_PADS_LAYER_TOP
100
AcDbCircle
 10
119.32
 20
-5.34
 30
0.0
 40
0.75
  0
CIRCLE
  5
20D
100
AcDbEntity
  8
PART_PADS_LAYER_TOP
100
AcDbCircle
 10
116.78
 20
-5.34
 30
0.0
 40
0.75
  0
CIRCLE
  5
20E
100
AcDbEntity
  8
PART_PADS_LAYER_TOP
100
AcDbCircle
 10
114.24
 20
-5.34
 30
0.0
 40
0.75
  0
CIRCLE
  5
20F
100
AcDbEntity
  8
PART_PADS_LAYER_TOP
100
AcDbCircle
 10
111.7
 20
-5.34
 30
0.0
 40
0.75
  0
CIRCLE
  5
210
100
AcDbEntity
  8
PART_PADS_LAYER_TOP
100
AcDbCircle
 10
109.16
 20
-5.34
 30
0.0
 40
0.75
  0
CIRCLE
  5
211
100
AcDbEntity
  8
PART_PADS_LAYER_TOP
100
AcDbCircle
 10
106.62
 20
-5.34
 30
0.0
 40
0.75
  0
CIRCLE
  5
212
100
AcDbEntity
  8
PART_PADS_LAYER_TOP
100
AcDbCircle
 10
104.08
 20
-5.34
 30
0.0
 40
0.75
  0
CIRCLE
  5
213
100
AcDbEntity
  8
PART_PADS_LAYER_TOP
100
AcDbCircle
 10
101.54
 20
-5.34
 30
0.0
 40
0.75
  0
CIRCLE
  5
214
100
AcDbEntity
  8
PART_PADS_LAYER_TOP
100
AcDbCircle
 10
99.0
 20
-5.34
 30
0.0
 40
0.75
  0
CIRCLE
  5
215
100
AcDbEntity
  8
PART_PADS_LAYER_TOP
100
AcDbCircle
 10
96.46
 20
-5.34
 30
0.0
 40
0.75
  0
CIRCLE
  5
216
100
AcDbEntity
  8
PART_PADS_LAYER_TOP
100
AcDbCircle
 10
91.38
 20
-5.34
 30
0.0
 40
0.75
  0
CIRCLE
  5
217
100
AcDbEntity
  8
PART_PADS_LAYER_TOP
100
AcDbCircle
 10
88.84
 20
-5.34
 30
0.0
 40
0.75
  0
LWPOLYLINE
  5
218
100
AcDbEntity
  8
PART_PADS_LAYER_TOP
100
AcDbPolyline
 90
        4
 70
         1
 10
136.35
 20
-3.55
 10
136.35
 20
-2.05
 10
137.85
 20
-2.05
 10
137.85
 20
-3.55
  0
CIRCLE
  5
219
100
AcDbEntity
  8
PART_PADS_LAYER_TOP
100
AcDbCircle
 10
134.56
 20
-5.34
 30
0.0
 40
0.75
  0
CIRCLE
  5
21A
100
AcDbEntity
  8
PART_PADS_LAYER_TOP
100
AcDbCircle
 10
137.1
 20
-5.34
 30
0.0
 40
0.75
  0
CIRCLE
  5
21B
100
AcDbEntity
  8
PART_PADS_LAYER_TOP
100
AcDbCircle
 10
93.92
 20
-2.8
 30
0.0
 40
0.75
  0
CIRCLE
  5
21C
100
AcDbEntity
  8
PART_PADS_LAYER_TOP
100
AcDbCircle
 10
93.92
 20
-5.34
 30
0.0
 40
0.75
  0
CIRCLE
  5
21D
100
AcDbEntity
  8
PART_PADS_LAYER_TOP
100
AcDbCircle
 10
126.94
 20
-2.8
 30
0.0
 40
0.75
  0
CIRCLE
  5
21E
100
AcDbEntity
  8
PART_PADS_LAYER_TOP
100
AcDbCircle
 10
126.94
 20
-5.34
 30
0.0
 40
0.75
  0
CIRCLE
  5
21F
100
AcDbEntity
  8
PART_PADS_LAYER_TOP
100
AcDbCircle
 10
124.4
 20
-5.34
 30
0.0
 40
0.75
  0
CIRCLE
  5
220
100
AcDbEntity
  8
PART_PADS_LAYER_TOP
100
AcDbCircle
 10
129.48
 20
-2.8
 30
0.0
 40
0.75
  0
CIRCLE
  5
221
100
AcDbEntity
  8
PART_PADS_LAYER_TOP
100
AcDbCircle
 10
129.48
 20
-5.34
 30
0.0
 40
0.75
  0
CIRCLE
  5
222
100
AcDbEntity
  8
PART_PADS_LAYER_TOP
100
AcDbCircle
 10
124.4
 20
-2.8
 30
0.0
 40
0.75
  0
CIRCLE
  5
223
100
AcDbEntity
  8
PART_PADS_LAYER_TOP
100
AcDbCircle
 10
155.332315
 20
93.056537
 30
0.0
 40
1.8
  0
CIRCLE
  5
224
100
AcDbEntity
  8
PART_PADS_LAYER_TOP
100
AcDbCircle
 10
158.332313
 20
88.356537
 30
0.0
 40
1.8
  0
CIRCLE
  5
225
100
AcDbEntity
  8
PART_PADS_LAYER_TOP
100
AcDbCircle
 10
152.132313
 20
88.356537
 30
0.0
 40
1.8
  0
LWPOLYLINE
  5
226
100
AcDbEntity
  8
PART_PADS_LAYER_TOP
100
AcDbPolyline
 90
        4
 70
         1
 10
85.607583
 20
95.035611
 10
85.607583
 20
96.535611
 10
87.107583
 20
96.535611
 10
87.107583
 20
95.035611
  0
CIRCLE
  5
227
100
AcDbEntity
  8
PART_PADS_LAYER_TOP
100
AcDbCircle
 10
88.897583
 20
98.325611
 30
0.0
 40
0.75
  0
CIRCLE
  5
228
100
AcDbEntity
  8
PART_PADS_LAYER_TOP
100
AcDbCircle
 10
86.357583
 20
98.325611
 30
0.0
 40
0.75
  0
CIRCLE
  5
229
100
AcDbEntity
  8
PART_PADS_LAYER_TOP
100
AcDbCircle
 10
134.617583
 20
98.325611
 30
0.0
 40
0.75
  0
CIRCLE
  5
22A
100
AcDbEntity
  8
PART_PADS_LAYER_TOP
100
AcDbCircle
 10
126.997583
 20
98.325611
 30
0.0
 40
0.75
  0
CIRCLE
  5
22B
100
AcDbEntity
  8
PART_PADS_LAYER_TOP
100
AcDbCircle
 10
126.997583
 20
95.785611
 30
0.0
 40
0.75
  0
CIRCLE
  5
22C
100
AcDbEntity
  8
PART_PADS_LAYER_TOP
100
AcDbCircle
 10
134.617583
 20
95.785611
 30
0.0
 40
0.75
  0
CIRCLE
  5
22D
100
AcDbEntity
  8
PART_PADS_LAYER_TOP
100
AcDbCircle
 10
93.977583
 20
95.785611
 30
0.0
 40
0.75
  0
CIRCLE
  5
22E
100
AcDbEntity
  8
PART_PADS_LAYER_TOP
100
AcDbCircle
 10
109.217583
 20
98.325611
 30
0.0
 40
0.75
  0
CIRCLE
  5
22F
100
AcDbEntity
  8
PART_PADS_LAYER_TOP
100
AcDbCircle
 10
109.217583
 20
95.785611
 30
0.0
 40
0.75
  0
CIRCLE
  5
230
100
AcDbEntity
  8
PART_PADS_LAYER_TOP
100
AcDbCircle
 10
129.537583
 20
98.325611
 30
0.0
 40
0.75
  0
CIRCLE
  5
231
100
AcDbEntity
  8
PART_PADS_LAYER_TOP
100
AcDbCircle
 10
129.537583
 20
95.785611
 30
0.0
 40
0.75
  0
CIRCLE
  5
232
100
AcDbEntity
  8
PART_PADS_LAYER_TOP
100
AcDbCircle
 10
111.757583
 20
98.325611
 30
0.0
 40
0.75
  0
CIRCLE
  5
233
100
AcDbEntity
  8
PART_PADS_LAYER_TOP
100
AcDbCircle
 10
111.757583
 20
95.785611
 30
0.0
 40
0.75
  0
CIRCLE
  5
234
100
AcDbEntity
  8
PART_PADS_LAYER_TOP
100
AcDbCircle
 10
99.057583
 20
95.785611
 30
0.0
 40
0.75
  0
CIRCLE
  5
235
100
AcDbEntity
  8
PART_PADS_LAYER_TOP
100
AcDbCircle
 10
116.837583
 20
98.325611
 30
0.0
 40
0.75
  0
CIRCLE
  5
236
100
AcDbEntity
  8
PART_PADS_LAYER_TOP
100
AcDbCircle
 10
114.297583
 20
98.325611
 30
0.0
 40
0.75
  0
CIRCLE
  5
237
100
AcDbEntity
  8
PART_PADS_LAYER_TOP
100
AcDbCircle
 10
114.297583
 20
95.785611
 30
0.0
 40
0.75
  0
CIRCLE
  5
238
100
AcDbEntity
  8
PART_PADS_LAYER_TOP
100
AcDbCircle
 10
104.137583
 20
95.785611
 30
0.0
 40
0.75
  0
CIRCLE
  5
239
100
AcDbEntity
  8
PART_PADS_LAYER_TOP
100
AcDbCircle
 10
121.917583
 20
95.785611
 30
0.0
 40
0.75
  0
CIRCLE
  5
23A
100
AcDbEntity
  8
PART_PADS_LAYER_TOP
100
AcDbCircle
 10
124.457583
 20
95.785611
 30
0.0
 40
0.75
  0
CIRCLE
  5
23B
100
AcDbEntity
  8
PART_PADS_LAYER_TOP
100
AcDbCircle
 10
121.917583
 20
98.325611
 30
0.0
 40
0.75
  0
CIRCLE
  5
23C
100
AcDbEntity
  8
PART_PADS_LAYER_TOP
100
AcDbCircle
 10
116.837583
 20
95.785611
 30
0.0
 40
0.75
  0
CIRCLE
  5
23D
100
AcDbEntity
  8
PART_PADS_LAYER_TOP
100
AcDbCircle
 10
119.377583
 20
98.325611
 30
0.0
 40
0.75
  0
CIRCLE
  5
23E
100
AcDbEntity
  8
PART_PADS_LAYER_TOP
100
AcDbCircle
 10
119.377583
 20
95.785611
 30
0.0
 40
0.75
  0
CIRCLE
  5
23F
100
AcDbEntity
  8
PART_PADS_LAYER_TOP
100
AcDbCircle
 10
99.057583
 20
98.325611
 30
0.0
 40
0.75
  0
CIRCLE
  5
240
100
AcDbEntity
  8
PART_PADS_LAYER_TOP
100
AcDbCircle
 10
132.077583
 20
95.785611
 30
0.0
 40
0.75
  0
CIRCLE
  5
241
100
AcDbEntity
  8
PART_PADS_LAYER_TOP
100
AcDbCircle
 10
132.077583
 20
98.325611
 30
0.0
 40
0.75
  0
CIRCLE
  5
242
100
AcDbEntity
  8
PART_PADS_LAYER_TOP
100
AcDbCircle
 10
124.457583
 20
98.325611
 30
0.0
 40
0.75
  0
CIRCLE
  5
243
100
AcDbEntity
  8
PART_PADS_LAYER_TOP
100
AcDbCircle
 10
106.677583
 20
98.325611
 30
0.0
 40
0.75
  0
CIRCLE
  5
244
100
AcDbEntity
  8
PART_PADS_LAYER_TOP
100
AcDbCircle
 10
106.677583
 20
95.785611
 30
0.0
 40
0.75
  0
CIRCLE
  5
245
100
AcDbEntity
  8
PART_PADS_LAYER_TOP
100
AcDbCircle
 10
104.137583
 20
98.325611
 30
0.0
 40
0.75
  0
CIRCLE
  5
246
100
AcDbEntity
  8
PART_PADS_LAYER_TOP
100
AcDbCircle
 10
101.597583
 20
98.325611
 30
0.0
 40
0.75
  0
CIRCLE
  5
247
100
AcDbEntity
  8
PART_PADS_LAYER_TOP
100
AcDbCircle
 10
101.597583
 20
95.785611
 30
0.0
 40
0.75
  0
CIRCLE
  5
248
100
AcDbEntity
  8
PART_PADS_LAYER_TOP
100
AcDbCircle
 10
96.517583
 20
98.325611
 30
0.0
 40
0.75
  0
CIRCLE
  5
249
100
AcDbEntity
  8
PART_PADS_LAYER_TOP
100
AcDbCircle
 10
91.437583
 20
98.325611
 30
0.0
 40
0.75
  0
CIRCLE
  5
24A
100
AcDbEntity
  8
PART_PADS_LAYER_TOP
100
AcDbCircle
 10
91.437583
 20
95.785611
 30
0.0
 40
0.75
  0
CIRCLE
  5
24B
100
AcDbEntity
  8
PART_PADS_LAYER_TOP
100
AcDbCircle
 10
88.897583
 20
95.785611
 30
0.0
 40
0.75
  0
CIRCLE
  5
24C
100
AcDbEntity
  8
PART_PADS_LAYER_TOP
100
AcDbCircle
 10
96.517583
 20
95.785611
 30
0.0
 40
0.75
  0
CIRCLE
  5
24D
100
AcDbEntity
  8
PART_PADS_LAYER_TOP
100
AcDbCircle
 10
93.977583
 20
98.325611
 30
0.0
 40
0.75
  0
CIRCLE
  5
24E
100
AcDbEntity
  8
PART_PADS_LAYER_TOP
100
AcDbCircle
 10
144.22
 20
57.2
 30
0.0
 40
0.7
  0
LWPOLYLINE
  5
24F
100
AcDbEntity
  8
PART_PADS_LAYER_TOP
100
AcDbPolyline
 90
        4
 70
         1
 10
148.6
 20
56.5
 10
148.6
 20
57.9
 10
150.0
 20
57.9
 10
150.0
 20
56.5
  0
CIRCLE
  5
250
100
AcDbEntity
  8
PART_PADS_LAYER_TOP
100
AcDbCircle
 10
146.76
 20
57.2
 30
0.0
 40
0.7
  0
CIRCLE
  5
251
100
AcDbEntity
  8
PART_PADS_LAYER_TOP
100
AcDbCircle
 10
148.9
 20
8.535
 30
0.0
 40
0.75
  0
CIRCLE
  5
252
100
AcDbEntity
  8
PART_PADS_LAYER_TOP
100
AcDbCircle
 10
146.36
 20
7.265
 30
0.0
 40
0.75
  0
LWPOLYLINE
  5
253
100
AcDbEntity
  8
PART_PADS_LAYER_TOP
100
AcDbPolyline
 90
        4
 70
         1
 10
155.125
 20
2.865
 42
-1.0
 10
155.375
 20
2.865
 10
155.375
 20
1.515
 42
-1.0
 10
155.125
 20
1.515
  0
LWPOLYLINE
  5
254
100
AcDbEntity
  8
PART_PADS_LAYER_TOP
100
AcDbPolyline
 90
        4
 70
         1
 10
155.125
 20
14.285
 42
-1.0
 10
155.375
 20
14.285
 10
155.375
 20
12.935
 42
-1.0
 10
155.125
 20
12.935
  0
CIRCLE
  5
255
100
AcDbEntity
  8
PART_PADS_LAYER_TOP
100
AcDbCircle
 10
152.2
 20
15.77
 30
0.0
 40
1.25
  0
CIRCLE
  5
256
100
AcDbEntity
  8
PART_PADS_LAYER_TOP
100
AcDbCircle
 10
148.9
 20
11.075
 30
0.0
 40
0.75
  0
LWPOLYLINE
  5
257
100
AcDbEntity
  8
PART_PADS_LAYER_TOP
100
AcDbPolyline
 90
        4
 70
         1
 10
148.15
 20
2.705
 10
148.15
 20
4.205
 10
149.65
 20
4.205
 10
149.65
 20
2.705
  0
CIRCLE
  5
258
100
AcDbEntity
  8
PART_PADS_LAYER_TOP
100
AcDbCircle
 10
146.36
 20
12.345
 30
0.0
 40
0.75
  0
CIRCLE
  5
259
100
AcDbEntity
  8
PART_PADS_LAYER_TOP
100
AcDbCircle
 10
146.36
 20
4.725
 30
0.0
 40
0.75
  0
CIRCLE
  5
25A
100
AcDbEntity
  8
PART_PADS_LAYER_TOP
100
AcDbCircle
 10
160.33
 20
1.57
 30
0.0
 40
0.9
  0
CIRCLE
  5
25B
100
AcDbEntity
  8
PART_PADS_LAYER_TOP
100
AcDbCircle
 10
141.53
 20
2.44
 30
0.0
 40
1.05
  0
CIRCLE
  5
25C
100
AcDbEntity
  8
PART_PADS_LAYER_TOP
100
AcDbCircle
 10
158.63
 20
4.11
 30
0.0
 40
0.9
  0
CIRCLE
  5
25D
100
AcDbEntity
  8
PART_PADS_LAYER_TOP
100
AcDbCircle
 10
141.53
 20
4.98
 30
0.0
 40
1.05
  0
CIRCLE
  5
25E
100
AcDbEntity
  8
PART_PADS_LAYER_TOP
100
AcDbCircle
 10
160.33
 20
11.69
 30
0.0
 40
0.9
  0
CIRCLE
  5
25F
100
AcDbEntity
  8
PART_PADS_LAYER_TOP
100
AcDbCircle
 10
141.53
 20
10.82
 30
0.0
 40
1.05
  0
CIRCLE
  5
260
100
AcDbEntity
  8
PART_PADS_LAYER_TOP
100
AcDbCircle
 10
158.63
 20
14.23
 30
0.0
 40
0.9
  0
CIRCLE
  5
261
100
AcDbEntity
  8
PART_PADS_LAYER_TOP
100
AcDbCircle
 10
141.53
 20
13.36
 30
0.0
 40
1.05
  0
CIRCLE
  5
262
100
AcDbEntity
  8
PART_PADS_LAYER_TOP
100
AcDbCircle
 10
152.2
 20
0.03
 30
0.0
 40
1.25
  0
CIRCLE
  5
263
100
AcDbEntity
  8
PART_PADS_LAYER_TOP
100
AcDbCircle
 10
148.9
 20
5.995
 30
0.0
 40
0.75
  0
CIRCLE
  5
264
100
AcDbEntity
  8
PART_PADS_LAYER_TOP
100
AcDbCircle
 10
146.36
 20
9.805
 30
0.0
 40
0.75
  0
CIRCLE
  5
265
100
AcDbEntity
  8
PART_PADS_LAYER_TOP
100
AcDbCircle
 10
103.628006
 20
48.655354
 30
0.0
 40
0.75
  0
CIRCLE
  5
266
100
AcDbEntity
  8
PART_PADS_LAYER_TOP
100
AcDbCircle
 10
103.628006
 20
43.775354
 30
0.0
 40
0.75
  0
LWPOLYLINE
  5
267
100
AcDbEntity
  8
PART_PADS_LAYER_TOP
100
AcDbPolyline
 90
        4
 70
         1
 10
96.5
 20
91.0
 10
96.5
 20
92.4
 10
97.9
 20
92.4
 10
97.9
 20
91.0
  0
CIRCLE
  5
268
100
AcDbEntity
  8
PART_PADS_LAYER_TOP
100
AcDbCircle
 10
99.74
 20
91.7
 30
0.0
 40
0.7
  0
CIRCLE
  5
269
100
AcDbEntity
  8
PART_PADS_LAYER_TOP
100
AcDbCircle
 10
102.28
 20
91.7
 30
0.0
 40
0.7
  0
LWPOLYLINE
  5
26A
100
AcDbEntity
  8
PART_PADS_LAYER_TOP
100
AcDbPolyline
 90
        4
 70
         1
 10
155.0
 20
48.7
 10
155.0
 20
50.1
 10
156.4
 20
50.1
 10
156.4
 20
48.7
  0
CIRCLE
  5
26B
100
AcDbEntity
  8
PART_PADS_LAYER_TOP
100
AcDbCircle
 10
153.16
 20
49.4
 30
0.0
 40
0.7
  0
CIRCLE
  5
26C
100
AcDbEntity
  8
PART_PADS_LAYER_TOP
100
AcDbCircle
 10
153.360469
 20
78.689351
 30
0.0
 40
0.75
  0
CIRCLE
  5
26D
100
AcDbEntity
  8
PART_PADS_LAYER_TOP
100
AcDbCircle
 10
150.820469
 20
76.149351
 30
0.0
 40
0.75
  0
CIRCLE
  5
26E
100
AcDbEntity
  8
PART_PADS_LAYER_TOP
100
AcDbCircle
 10
153.360469
 20
76.149351
 30
0.0
 40
0.75
  0
LWPOLYLINE
  5
26F
100
AcDbEntity
  8
PART_PADS_LAYER_TOP
100
AcDbPolyline
 90
        4
 70
         1
 10
150.070469
 20
77.939351
 10
150.070469
 20
79.439351
 10
151.570469
 20
79.439351
 10
151.570469
 20
77.939351
  0
CIRCLE
  5
270
100
AcDbEntity
  8
PART_PADS_LAYER_TOP
100
AcDbCircle
 10
155.620469
 20
83.489351
 30
0.0
 40
1.65
  0
CIRCLE
  5
271
100
AcDbEntity
  8
PART_PADS_LAYER_TOP
100
AcDbCircle
 10
155.620469
 20
71.489351
 30
0.0
 40
1.65
  0
LWPOLYLINE
  5
272
100
AcDbEntity
  8
PART_PADS_LAYER_TOP
100
AcDbPolyline
 90
        4
 70
         1
 10
116.3
 20
0.7
 10
116.3
 20
2.1
 10
117.7
 20
2.1
 10
117.7
 20
0.7
  0
CIRCLE
  5
273
100
AcDbEntity
  8
PART_PADS_LAYER_TOP
100
AcDbCircle
 10
114.46
 20
1.4
 30
0.0
 40
0.7
  0
LWPOLYLINE
  5
274
100
AcDbEntity
  8
PART_PADS_LAYER_TOP
100
AcDbPolyline
 90
        4
 70
         1
 10
161.2
 20
68.1
 10
161.2
 20
69.5
 10
162.6
 20
69.5
 10
162.6
 20
68.1
  0
CIRCLE
  5
275
100
AcDbEntity
  8
PART_PADS_LAYER_TOP
100
AcDbCircle
 10
159.36
 20
68.8
 30
0.0
 40
0.7
  0
CIRCLE
  5
276
100
AcDbEntity
  8
PART_PADS_LAYER_TOP
100
AcDbCircle
 10
159.46
 20
49.4
 30
0.0
 40
0.7
  0
LWPOLYLINE
  5
277
100
AcDbEntity
  8
PART_PADS_LAYER_TOP
100
AcDbPolyline
 90
        4
 70
         1
 10
161.3
 20
48.7
 10
161.3
 20
50.1
 10
162.7
 20
50.1
 10
162.7
 20
48.7
  0
CIRCLE
  5
278
100
AcDbEntity
  8
PART_PADS_LAYER_TOP
100
AcDbCircle
 10
83.109485
 20
5.615609
 30
0.0
 40
0.75
  0
LWPOLYLINE
  5
279
100
AcDbEntity
  8
PART_PADS_LAYER_TOP
100
AcDbPolyline
 90
        4
 70
         1
 10
82.359485
 20
2.325609
 10
82.359485
 20
3.825609
 10
83.859485
 20
3.825609
 10
83.859485
 20
2.325609
  0
CIRCLE
  5
27A
100
AcDbEntity
  8
PART_PADS_LAYER_TOP
100
AcDbCircle
 10
80.569485
 20
5.615609
 30
0.0
 40
0.75
  0
CIRCLE
  5
27B
100
AcDbEntity
  8
PART_PADS_LAYER_TOP
100
AcDbCircle
 10
80.569485
 20
3.075609
 30
0.0
 40
0.75
  0
CIRCLE
  5
27C
100
AcDbEntity
  8
PART_PADS_LAYER_TOP
100
AcDbCircle
 10
83.109485
 20
38.635609
 30
0.0
 40
0.75
  0
CIRCLE
  5
27D
100
AcDbEntity
  8
PART_PADS_LAYER_TOP
100
AcDbCircle
 10
80.569485
 20
15.775609
 30
0.0
 40
0.75
  0
CIRCLE
  5
27E
100
AcDbEntity
  8
PART_PADS_LAYER_TOP
100
AcDbCircle
 10
83.109485
 20
20.855609
 30
0.0
 40
0.75
  0
CIRCLE
  5
27F
100
AcDbEntity
  8
PART_PADS_LAYER_TOP
100
AcDbCircle
 10
83.109485
 20
23.395609
 30
0.0
 40
0.75
  0
CIRCLE
  5
280
100
AcDbEntity
  8
PART_PADS_LAYER_TOP
100
AcDbCircle
 10
80.569485
 20
33.555609
 30
0.0
 40
0.75
  0
CIRCLE
  5
281
100
AcDbEntity
  8
PART_PADS_LAYER_TOP
100
AcDbCircle
 10
83.109485
 20
33.555609
 30
0.0
 40
0.75
  0
CIRCLE
  5
282
100
AcDbEntity
  8
PART_PADS_LAYER_TOP
100
AcDbCircle
 10
80.569485
 20
31.015609
 30
0.0
 40
0.75
  0
CIRCLE
  5
283
100
AcDbEntity
  8
PART_PADS_LAYER_TOP
100
AcDbCircle
 10
83.109485
 20
31.015609
 30
0.0
 40
0.75
  0
CIRCLE
  5
284
100
AcDbEntity
  8
PART_PADS_LAYER_TOP
100
AcDbCircle
 10
80.569485
 20
36.095609
 30
0.0
 40
0.75
  0
CIRCLE
  5
285
100
AcDbEntity
  8
PART_PADS_LAYER_TOP
100
AcDbCircle
 10
83.109485
 20
36.095609
 30
0.0
 40
0.75
  0
CIRCLE
  5
286
100
AcDbEntity
  8
PART_PADS_LAYER_TOP
100
AcDbCircle
 10
80.569485
 20
51.335609
 30
0.0
 40
0.75
  0
CIRCLE
  5
287
100
AcDbEntity
  8
PART_PADS_LAYER_TOP
100
AcDbCircle
 10
83.109485
 20
13.235609
 30
0.0
 40
0.75
  0
CIRCLE
  5
288
100
AcDbEntity
  8
PART_PADS_LAYER_TOP
100
AcDbCircle
 10
80.569485
 20
13.235609
 30
0.0
 40
0.75
  0
CIRCLE
  5
289
100
AcDbEntity
  8
PART_PADS_LAYER_TOP
100
AcDbCircle
 10
83.109485
 20
43.715609
 30
0.0
 40
0.75
  0
CIRCLE
  5
28A
100
AcDbEntity
  8
PART_PADS_LAYER_TOP
100
AcDbCircle
 10
80.569485
 20
38.635609
 30
0.0
 40
0.75
  0
CIRCLE
  5
28B
100
AcDbEntity
  8
PART_PADS_LAYER_TOP
100
AcDbCircle
 10
83.109485
 20
51.335609
 30
0.0
 40
0.75
  0
CIRCLE
  5
28C
100
AcDbEntity
  8
PART_PADS_LAYER_TOP
100
AcDbCircle
 10
80.569485
 20
48.795609
 30
0.0
 40
0.75
  0
CIRCLE
  5
28D
100
AcDbEntity
  8
PART_PADS_LAYER_TOP
100
AcDbCircle
 10
83.109485
 20
48.795609
 30
0.0
 40
0.75
  0
CIRCLE
  5
28E
100
AcDbEntity
  8
PART_PADS_LAYER_TOP
100
AcDbCircle
 10
80.569485
 20
46.255609
 30
0.0
 40
0.75
  0
CIRCLE
  5
28F
100
AcDbEntity
  8
PART_PADS_LAYER_TOP
100
AcDbCircle
 10
83.109485
 20
46.255609
 30
0.0
 40
0.75
  0
CIRCLE
  5
290
100
AcDbEntity
  8
PART_PADS_LAYER_TOP
100
AcDbCircle
 10
80.569485
 20
43.715609
 30
0.0
 40
0.75
  0
CIRCLE
  5
291
100
AcDbEntity
  8
PART_PADS_LAYER_TOP
100
AcDbCircle
 10
80.569485
 20
41.175609
 30
0.0
 40
0.75
  0
CIRCLE
  5
292
100
AcDbEntity
  8
PART_PADS_LAYER_TOP
100
AcDbCircle
 10
83.109485
 20
41.175609
 30
0.0
 40
0.75
  0
CIRCLE
  5
293
100
AcDbEntity
  8
PART_PADS_LAYER_TOP
100
AcDbCircle
 10
80.569485
 20
20.855609
 30
0.0
 40
0.75
  0
CIRCLE
  5
294
100
AcDbEntity
  8
PART_PADS_LAYER_TOP
100
AcDbCircle
 10
80.569485
 20
18.315609
 30
0.0
 40
0.75
  0
CIRCLE
  5
295
100
AcDbEntity
  8
PART_PADS_LAYER_TOP
100
AcDbCircle
 10
80.569485
 20
8.155609
 30
0.0
 40
0.75
  0
CIRCLE
  5
296
100
AcDbEntity
  8
PART_PADS_LAYER_TOP
100
AcDbCircle
 10
83.109485
 20
18.315609
 30
0.0
 40
0.75
  0
CIRCLE
  5
297
100
AcDbEntity
  8
PART_PADS_LAYER_TOP
100
AcDbCircle
 10
80.569485
 20
28.475609
 30
0.0
 40
0.75
  0
CIRCLE
  5
298
100
AcDbEntity
  8
PART_PADS_LAYER_TOP
100
AcDbCircle
 10
83.109485
 20
28.475609
 30
0.0
 40
0.75
  0
CIRCLE
  5
299
100
AcDbEntity
  8
PART_PADS_LAYER_TOP
100
AcDbCircle
 10
80.569485
 20
25.935609
 30
0.0
 40
0.75
  0
CIRCLE
  5
29A
100
AcDbEntity
  8
PART_PADS_LAYER_TOP
100
AcDbCircle
 10
83.109485
 20
25.935609
 30
0.0
 40
0.75
  0
CIRCLE
  5
29B
100
AcDbEntity
  8
PART_PADS_LAYER_TOP
100
AcDbCircle
 10
80.569485
 20
23.395609
 30
0.0
 40
0.75
  0
CIRCLE
  5
29C
100
AcDbEntity
  8
PART_PADS_LAYER_TOP
100
AcDbCircle
 10
83.109485
 20
8.155609
 30
0.0
 40
0.75
  0
CIRCLE
  5
29D
100
AcDbEntity
  8
PART_PADS_LAYER_TOP
100
AcDbCircle
 10
83.109485
 20
10.695609
 30
0.0
 40
0.75
  0
CIRCLE
  5
29E
100
AcDbEntity
  8
PART_PADS_LAYER_TOP
100
AcDbCircle
 10
80.569485
 20
10.695609
 30
0.0
 40
0.75
  0
CIRCLE
  5
29F
100
AcDbEntity
  8
PART_PADS_LAYER_TOP
100
AcDbCircle
 10
83.109485
 20
15.775609
 30
0.0
 40
0.75
  0
CIRCLE
  5
2A0
100
AcDbEntity
  8
PART_PADS_LAYER_TOP
100
AcDbCircle
 10
103.385304
 20
55.980856
 30
0.0
 40
0.75
  0
CIRCLE
  5
2A1
100
AcDbEntity
  8
PART_PADS_LAYER_TOP
100
AcDbCircle
 10
103.385304
 20
53.440854
 30
0.0
 40
0.75
  0
CIRCLE
  5
2A2
100
AcDbEntity
  8
PART_PADS_LAYER_TOP
100
AcDbCircle
 10
144.22
 20
54.6
 30
0.0
 40
0.7
  0
LWPOLYLINE
  5
2A3
100
AcDbEntity
  8
PART_PADS_LAYER_TOP
100
AcDbPolyline
 90
        4
 70
         1
 10
148.6
 20
53.9
 10
148.6
 20
55.3
 10
150.0
 20
55.3
 10
150.0
 20
53.9
  0
CIRCLE
  5
2A4
100
AcDbEntity
  8
PART_PADS_LAYER_TOP
100
AcDbCircle
 10
146.76
 20
54.6
 30
0.0
 40
0.7
  0
CIRCLE
  5
2A5
100
AcDbEntity
  8
PART_PADS_LAYER_TOP
100
AcDbCircle
 10
153.04
 20
62.96
 30
0.0
 40
0.75
  0
LWPOLYLINE
  5
2A6
100
AcDbEntity
  8
PART_PADS_LAYER_TOP
100
AcDbPolyline
 90
        4
 70
         1
 10
152.29
 20
55.21
 10
152.29
 20
56.71
 10
153.79
 20
56.71
 10
153.79
 20
55.21
  0
CIRCLE
  5
2A7
100
AcDbEntity
  8
PART_PADS_LAYER_TOP
100
AcDbCircle
 10
153.04
 20
58.46
 30
0.0
 40
0.75
  0
CIRCLE
  5
2A8
100
AcDbEntity
  8
PART_PADS_LAYER_TOP
100
AcDbCircle
 10
153.04
 20
60.46
 30
0.0
 40
0.75
  0
CIRCLE
  5
2A9
100
AcDbEntity
  8
PART_PADS_LAYER_TOP
100
AcDbCircle
 10
155.76
 20
52.86
 30
0.0
 40
1.65
  0
CIRCLE
  5
2AA
100
AcDbEntity
  8
PART_PADS_LAYER_TOP
100
AcDbCircle
 10
155.76
 20
66.06
 30
0.0
 40
1.65
  0
CIRCLE
  5
2AB
100
AcDbEntity
  8
PART_PADS_LAYER_TOP
100
AcDbCircle
 10
144.22
 20
63.8
 30
0.0
 40
0.7
  0
LWPOLYLINE
  5
2AC
100
AcDbEntity
  8
PART_PADS_LAYER_TOP
100
AcDbPolyline
 90
        4
 70
         1
 10
148.6
 20
63.1
 10
148.6
 20
64.5
 10
150.0
 20
64.5
 10
150.0
 20
63.1
  0
CIRCLE
  5
2AD
100
AcDbEntity
  8
PART_PADS_LAYER_TOP
100
AcDbCircle
 10
146.76
 20
63.8
 30
0.0
 40
0.7
  0
CIRCLE
  5
2AE
100
AcDbEntity
  8
PART_PADS_LAYER_TOP
100
AcDbCircle
 10
145.856915
 20
32.120213
 30
0.0
 40
0.75
  0
CIRCLE
  5
2AF
100
AcDbEntity
  8
PART_PADS_LAYER_TOP
100
AcDbCircle
 10
148.396915
 20
42.280213
 30
0.0
 40
0.75
  0
CIRCLE
  5
2B0
100
AcDbEntity
  8
PART_PADS_LAYER_TOP
100
AcDbCircle
 10
148.396915
 20
39.740213
 30
0.0
 40
0.75
  0
CIRCLE
  5
2B1
100
AcDbEntity
  8
PART_PADS_LAYER_TOP
100
AcDbCircle
 10
148.396915
 20
37.200213
 30
0.0
 40
0.75
  0
CIRCLE
  5
2B2
100
AcDbEntity
  8
PART_PADS_LAYER_TOP
100
AcDbCircle
 10
148.396915
 20
34.660213
 30
0.0
 40
0.75
  0
CIRCLE
  5
2B3
100
AcDbEntity
  8
PART_PADS_LAYER_TOP
100
AcDbCircle
 10
148.396915
 20
32.120213
 30
0.0
 40
0.75
  0
CIRCLE
  5
2B4
100
AcDbEntity
  8
PART_PADS_LAYER_TOP
100
AcDbCircle
 10
148.396915
 20
29.580213
 30
0.0
 40
0.75
  0
CIRCLE
  5
2B5
100
AcDbEntity
  8
PART_PADS_LAYER_TOP
100
AcDbCircle
 10
148.396915
 20
27.040213
 30
0.0
 40
0.75
  0
CIRCLE
  5
2B6
100
AcDbEntity
  8
PART_PADS_LAYER_TOP
100
AcDbCircle
 10
148.396915
 20
24.500213
 30
0.0
 40
0.75
  0
CIRCLE
  5
2B7
100
AcDbEntity
  8
PART_PADS_LAYER_TOP
100
AcDbCircle
 10
148.396915
 20
21.960213
 30
0.0
 40
0.75
  0
LWPOLYLINE
  5
2B8
100
AcDbEntity
  8
PART_PADS_LAYER_TOP
100
AcDbPolyline
 90
        4
 70
         1
 10
145.106915
 20
44.070213
 10
145.106915
 20
45.570213
 10
146.606915
 20
45.570213
 10
146.606915
 20
44.070213
  0
CIRCLE
  5
2B9
100
AcDbEntity
  8
PART_PADS_LAYER_TOP
100
AcDbCircle
 10
148.396915
 20
44.820213
 30
0.0
 40
0.75
  0
CIRCLE
  5
2BA
100
AcDbEntity
  8
PART_PADS_LAYER_TOP
100
AcDbCircle
 10
145.856915
 20
27.040213
 30
0.0
 40
0.75
  0
CIRCLE
  5
2BB
100
AcDbEntity
  8
PART_PADS_LAYER_TOP
100
AcDbCircle
 10
145.856915
 20
39.740213
 30
0.0
 40
0.75
  0
CIRCLE
  5
2BC
100
AcDbEntity
  8
PART_PADS_LAYER_TOP
100
AcDbCircle
 10
145.856915
 20
29.580213
 30
0.0
 40
0.75
  0
CIRCLE
  5
2BD
100
AcDbEntity
  8
PART_PADS_LAYER_TOP
100
AcDbCircle
 10
145.856915
 20
37.200213
 30
0.0
 40
0.75
  0
CIRCLE
  5
2BE
100
AcDbEntity
  8
PART_PADS_LAYER_TOP
100
AcDbCircle
 10
145.856915
 20
42.280213
 30
0.0
 40
0.75
  0
CIRCLE
  5
2BF
100
AcDbEntity
  8
PART_PADS_LAYER_TOP
100
AcDbCircle
 10
145.856915
 20
34.660213
 30
0.0
 40
0.75
  0
CIRCLE
  5
2C0
100
AcDbEntity
  8
PART_PADS_LAYER_TOP
100
AcDbCircle
 10
145.856915
 20
24.500213
 30
0.0
 40
0.75
  0
CIRCLE
  5
2C1
100
AcDbEntity
  8
PART_PADS_LAYER_TOP
100
AcDbCircle
 10
145.856915
 20
21.960213
 30
0.0
 40
0.75
  0
CIRCLE
  5
2C2
100
AcDbEntity
  8
PART_PADS_LAYER_TOP
100
AcDbCircle
 10
144.22
 20
61.2
 30
0.0
 40
0.7
  0
LWPOLYLINE
  5
2C3
100
AcDbEntity
  8
PART_PADS_LAYER_TOP
100
AcDbPolyline
 90
        4
 70
         1
 10
148.6
 20
60.5
 10
148.6
 20
61.9
 10
150.0
 20
61.9
 10
150.0
 20
60.5
  0
CIRCLE
  5
2C4
100
AcDbEntity
  8
PART_PADS_LAYER_TOP
100
AcDbCircle
 10
146.76
 20
61.2
 30
0.0
 40
0.7
  0
CIRCLE
  5
2C5
100
AcDbEntity
  8
SOLDERMASK_PADS_TOP
100
AcDbCircle
 10
153.56053
 20
37.48604
 30
0.0
 40
0.9
  0
CIRCLE
  5
2C6
100
AcDbEntity
  8
SOLDERMASK_PADS_TOP
100
AcDbCircle
 10
156.40053
 20
33.33104
 30
0.0
 40
0.9
  0
CIRCLE
  5
2C7
100
AcDbEntity
  8
SOLDERMASK_PADS_TOP
100
AcDbCircle
 10
156.40053
 20
36.10104
 30
0.0
 40
0.9
  0
CIRCLE
  5
2C8
100
AcDbEntity
  8
SOLDERMASK_PADS_TOP
100
AcDbCircle
 10
154.98053
 20
44.44604
 30
0.0
 40
1.9
  0
CIRCLE
  5
2C9
100
AcDbEntity
  8
SOLDERMASK_PADS_TOP
100
AcDbCircle
 10
154.98053
 20
19.44604
 30
0.0
 40
1.9
  0
CIRCLE
  5
2CA
100
AcDbEntity
  8
SOLDERMASK_PADS_TOP
100
AcDbCircle
 10
156.40053
 20
30.56104
 30
0.0
 40
0.9
  0
CIRCLE
  5
2CB
100
AcDbEntity
  8
SOLDERMASK_PADS_TOP
100
AcDbCircle
 10
153.56053
 20
26.40604
 30
0.0
 40
0.9
  0
CIRCLE
  5
2CC
100
AcDbEntity
  8
SOLDERMASK_PADS_TOP
100
AcDbCircle
 10
153.56053
 20
34.71604
 30
0.0
 40
0.9
  0
CIRCLE
  5
2CD
100
AcDbEntity
  8
SOLDERMASK_PADS_TOP
100
AcDbCircle
 10
156.40053
 20
27.79104
 30
0.0
 40
0.9
  0
CIRCLE
  5
2CE
100
AcDbEntity
  8
SOLDERMASK_PADS_TOP
100
AcDbCircle
 10
153.56053
 20
29.17604
 30
0.0
 40
0.9
  0
CIRCLE
  5
2CF
100
AcDbEntity
  8
SOLDERMASK_PADS_TOP
100
AcDbCircle
 10
153.56053
 20
31.94604
 30
0.0
 40
0.9
  0
LWPOLYLINE
  5
2D0
100
AcDbEntity
  8
SOLDERMASK_PADS_TOP
100
AcDbPolyline
 90
        4
 70
         1
 10
151.2
 20
67.65
 10
151.2
 20
69.75
 10
153.3
 20
69.75
 10
153.3
 20
67.65
  0
LWPOLYLINE
  5
2D1
100
AcDbEntity
  8
SOLDERMASK_PADS_TOP
100
AcDbPolyline
 90
        4
 70
         1
 10
146.7
 20
67.65
 10
146.7
 20
69.75
 10
148.8
 20
69.75
 10
148.8
 20
67.65
  0
CIRCLE
  5
2D2
100
AcDbEntity
  8
SOLDERMASK_PADS_TOP
100
AcDbCircle
 10
99.5
 20
41.38
 30
0.0
 40
0.7
  0
CIRCLE
  5
2D3
100
AcDbEntity
  8
SOLDERMASK_PADS_TOP
100
AcDbCircle
 10
99.5
 20
38.84
 30
0.0
 40
0.7
  0
LWPOLYLINE
  5
2D4
100
AcDbEntity
  8
SOLDERMASK_PADS_TOP
100
AcDbPolyline
 90
        4
 70
         1
 10
98.8
 20
35.6
 10
98.8
 20
37.0
 10
100.2
 20
37.0
 10
100.2
 20
35.6
  0
CIRCLE
  5
2D5
100
AcDbEntity
  8
SOLDERMASK_PADS_TOP
100
AcDbCircle
 10
134.56
 20
-2.8
 30
0.0
 40
0.75
  0
CIRCLE
  5
2D6
100
AcDbEntity
  8
SOLDERMASK_PADS_TOP
100
AcDbCircle
 10
132.02
 20
-2.8
 30
0.0
 40
0.75
  0
CIRCLE
  5
2D7
100
AcDbEntity
  8
SOLDERMASK_PADS_TOP
100
AcDbCircle
 10
121.86
 20
-2.8
 30
0.0
 40
0.75
  0
CIRCLE
  5
2D8
100
AcDbEntity
  8
SOLDERMASK_PADS_TOP
100
AcDbCircle
 10
119.32
 20
-2.8
 30
0.0
 40
0.75
  0
CIRCLE
  5
2D9
100
AcDbEntity
  8
SOLDERMASK_PADS_TOP
100
AcDbCircle
 10
116.78
 20
-2.8
 30
0.0
 40
0.75
  0
CIRCLE
  5
2DA
100
AcDbEntity
  8
SOLDERMASK_PADS_TOP
100
AcDbCircle
 10
114.24
 20
-2.8
 30
0.0
 40
0.75
  0
CIRCLE
  5
2DB
100
AcDbEntity
  8
SOLDERMASK_PADS_TOP
100
AcDbCircle
 10
111.7
 20
-2.8
 30
0.0
 40
0.75
  0
CIRCLE
  5
2DC
100
AcDbEntity
  8
SOLDERMASK_PADS_TOP
100
AcDbCircle
 10
109.16
 20
-2.8
 30
0.0
 40
0.75
  0
CIRCLE
  5
2DD
100
AcDbEntity
  8
SOLDERMASK_PADS_TOP
100
AcDbCircle
 10
106.62
 20
-2.8
 30
0.0
 40
0.75
  0
CIRCLE
  5
2DE
100
AcDbEntity
  8
SOLDERMASK_PADS_TOP
100
AcDbCircle
 10
104.08
 20
-2.8
 30
0.0
 40
0.75
  0
CIRCLE
  5
2DF
100
AcDbEntity
  8
SOLDERMASK_PADS_TOP
100
AcDbCircle
 10
101.54
 20
-2.8
 30
0.0
 40
0.75
  0
CIRCLE
  5
2E0
100
AcDbEntity
  8
SOLDERMASK_PADS_TOP
100
AcDbCircle
 10
99.0
 20
-2.8
 30
0.0
 40
0.75
  0
CIRCLE
  5
2E1
100
AcDbEntity
  8
SOLDERMASK_PADS_TOP
100
AcDbCircle
 10
96.46
 20
-2.8
 30
0.0
 40
0.75
  0
CIRCLE
  5
2E2
100
AcDbEntity
  8
SOLDERMASK_PADS_TOP
100
AcDbCircle
 10
91.38
 20
-2.8
 30
0.0
 40
0.75
  0
CIRCLE
  5
2E3
100
AcDbEntity
  8
SOLDERMASK_PADS_TOP
100
AcDbCircle
 10
88.84
 20
-2.8
 30
0.0
 40
0.75
  0
CIRCLE
  5
2E4
100
AcDbEntity
  8
SOLDERMASK_PADS_TOP
100
AcDbCircle
 10
132.02
 20
-5.34
 30
0.0
 40
0.75
  0
CIRCLE
  5
2E5
100
AcDbEntity
  8
SOLDERMASK_PADS_TOP
100
AcDbCircle
 10
121.86
 20
-5.34
 30
0.0
 40
0.75
  0
CIRCLE
  5
2E6
100
AcDbEntity
  8
SOLDERMASK_PADS_TOP
100
AcDbCircle
 10
119.32
 20
-5.34
 30
0.0
 40
0.75
  0
CIRCLE
  5
2E7
100
AcDbEntity
  8
SOLDERMASK_PADS_TOP
100
AcDbCircle
 10
116.78
 20
-5.34
 30
0.0
 40
0.75
  0
CIRCLE
  5
2E8
100
AcDbEntity
  8
SOLDERMASK_PADS_TOP
100
AcDbCircle
 10
114.24
 20
-5.34
 30
0.0
 40
0.75
  0
CIRCLE
  5
2E9
100
AcDbEntity
  8
SOLDERMASK_PADS_TOP
100
AcDbCircle
 10
111.7
 20
-5.34
 30
0.0
 40
0.75
  0
CIRCLE
  5
2EA
100
AcDbEntity
  8
SOLDERMASK_PADS_TOP
100
AcDbCircle
 10
109.16
 20
-5.34
 30
0.0
 40
0.75
  0
CIRCLE
  5
2EB
100
AcDbEntity
  8
SOLDERMASK_PADS_TOP
100
AcDbCircle
 10
106.62
 20
-5.34
 30
0.0
 40
0.75
  0
CIRCLE
  5
2EC
100
AcDbEntity
  8
SOLDERMASK_PADS_TOP
100
AcDbCircle
 10
104.08
 20
-5.34
 30
0.0
 40
0.75
  0
CIRCLE
  5
2ED
100
AcDbEntity
  8
SOLDERMASK_PADS_TOP
100
AcDbCircle
 10
101.54
 20
-5.34
 30
0.0
 40
0.75
  0
CIRCLE
  5
2EE
100
AcDbEntity
  8
SOLDERMASK_PADS_TOP
100
AcDbCircle
 10
99.0
 20
-5.34
 30
0.0
 40
0.75
  0
CIRCLE
  5
2EF
100
AcDbEntity
  8
SOLDERMASK_PADS_TOP
100
AcDbCircle
 10
96.46
 20
-5.34
 30
0.0
 40
0.75
  0
CIRCLE
  5
2F0
100
AcDbEntity
  8
SOLDERMASK_PADS_TOP
100
AcDbCircle
 10
91.38
 20
-5.34
 30
0.0
 40
0.75
  0
CIRCLE
  5
2F1
100
AcDbEntity
  8
SOLDERMASK_PADS_TOP
100
AcDbCircle
 10
88.84
 20
-5.34
 30
0.0
 40
0.75
  0
LWPOLYLINE
  5
2F2
100
AcDbEntity
  8
SOLDERMASK_PADS_TOP
100
AcDbPolyline
 90
        4
 70
         1
 10
136.3
 20
-3.6
 10
136.3
 20
-2.0
 10
137.9
 20
-2.0
 10
137.9
 20
-3.6
  0
CIRCLE
  5
2F3
100
AcDbEntity
  8
SOLDERMASK_PADS_TOP
100
AcDbCircle
 10
134.56
 20
-5.34
 30
0.0
 40
0.75
  0
CIRCLE
  5
2F4
100
AcDbEntity
  8
SOLDERMASK_PADS_TOP
100
AcDbCircle
 10
137.1
 20
-5.34
 30
0.0
 40
0.75
  0
CIRCLE
  5
2F5
100
AcDbEntity
  8
SOLDERMASK_PADS_TOP
100
AcDbCircle
 10
93.92
 20
-2.8
 30
0.0
 40
0.75
  0
CIRCLE
  5
2F6
100
AcDbEntity
  8
SOLDERMASK_PADS_TOP
100
AcDbCircle
 10
93.92
 20
-5.34
 30
0.0
 40
0.75
  0
CIRCLE
  5
2F7
100
AcDbEntity
  8
SOLDERMASK_PADS_TOP
100
AcDbCircle
 10
126.94
 20
-2.8
 30
0.0
 40
0.75
  0
CIRCLE
  5
2F8
100
AcDbEntity
  8
SOLDERMASK_PADS_TOP
100
AcDbCircle
 10
126.94
 20
-5.34
 30
0.0
 40
0.75
  0
CIRCLE
  5
2F9
100
AcDbEntity
  8
SOLDERMASK_PADS_TOP
100
AcDbCircle
 10
124.4
 20
-5.34
 30
0.0
 40
0.75
  0
CIRCLE
  5
2FA
100
AcDbEntity
  8
SOLDERMASK_PADS_TOP
100
AcDbCircle
 10
129.48
 20
-2.8
 30
0.0
 40
0.75
  0
CIRCLE
  5
2FB
100
AcDbEntity
  8
SOLDERMASK_PADS_TOP
100
AcDbCircle
 10
129.48
 20
-5.34
 30
0.0
 40
0.75
  0
CIRCLE
  5
2FC
100
AcDbEntity
  8
SOLDERMASK_PADS_TOP
100
AcDbCircle
 10
124.4
 20
-2.8
 30
0.0
 40
0.75
  0
CIRCLE
  5
2FD
100
AcDbEntity
  8
SOLDERMASK_PADS_TOP
100
AcDbCircle
 10
155.332315
 20
93.056537
 30
0.0
 40
1.8
  0
CIRCLE
  5
2FE
100
AcDbEntity
  8
SOLDERMASK_PADS_TOP
100
AcDbCircle
 10
158.332313
 20
88.356537
 30
0.0
 40
1.8
  0
CIRCLE
  5
2FF
100
AcDbEntity
  8
SOLDERMASK_PADS_TOP
100
AcDbCircle
 10
152.132313
 20
88.356537
 30
0.0
 40
1.8
  0
LWPOLYLINE
  5
300
100
AcDbEntity
  8
SOLDERMASK_PADS_TOP
100
AcDbPolyline
 90
        4
 70
         1
 10
140.0
 20
75.375
 10
140.0
 20
78.525
 10
141.6
 20
78.525
 10
141.6
 20
75.375
  0
LWPOLYLINE
  5
301
100
AcDbEntity
  8
SOLDERMASK_PADS_TOP
100
AcDbPolyline
 90
        4
 70
         1
 10
140.0
 20
70.475
 10
140.0
 20
73.625
 10
141.6
 20
73.625
 10
141.6
 20
70.475
  0
LWPOLYLINE
  5
302
100
AcDbEntity
  8
SOLDERMASK_PADS_TOP
100
AcDbPolyline
 90
        4
 70
         1
 10
85.557583
 20
94.985611
 10
85.557583
 20
96.585611
 10
87.157583
 20
96.585611
 10
87.157583
 20
94.985611
  0
CIRCLE
  5
303
100
AcDbEntity
  8
SOLDERMASK_PADS_TOP
100
AcDbCircle
 10
88.897583
 20
98.325611
 30
0.0
 40
0.75
  0
CIRCLE
  5
304
100
AcDbEntity
  8
SOLDERMASK_PADS_TOP
100
AcDbCircle
 10
86.357583
 20
98.325611
 30
0.0
 40
0.75
  0
CIRCLE
  5
305
100
AcDbEntity
  8
SOLDERMASK_PADS_TOP
100
AcDbCircle
 10
134.617583
 20
98.325611
 30
0.0
 40
0.75
  0
CIRCLE
  5
306
100
AcDbEntity
  8
SOLDERMASK_PADS_TOP
100
AcDbCircle
 10
126.997583
 20
98.325611
 30
0.0
 40
0.75
  0
CIRCLE
  5
307
100
AcDbEntity
  8
SOLDERMASK_PADS_TOP
100
AcDbCircle
 10
126.997583
 20
95.785611
 30
0.0
 40
0.75
  0
CIRCLE
  5
308
100
AcDbEntity
  8
SOLDERMASK_PADS_TOP
100
AcDbCircle
 10
134.617583
 20
95.785611
 30
0.0
 40
0.75
  0
CIRCLE
  5
309
100
AcDbEntity
  8
SOLDERMASK_PADS_TOP
100
AcDbCircle
 10
93.977583
 20
95.785611
 30
0.0
 40
0.75
  0
CIRCLE
  5
30A
100
AcDbEntity
  8
SOLDERMASK_PADS_TOP
100
AcDbCircle
 10
109.217583
 20
98.325611
 30
0.0
 40
0.75
  0
CIRCLE
  5
30B
100
AcDbEntity
  8
SOLDERMASK_PADS_TOP
100
AcDbCircle
 10
109.217583
 20
95.785611
 30
0.0
 40
0.75
  0
CIRCLE
  5
30C
100
AcDbEntity
  8
SOLDERMASK_PADS_TOP
100
AcDbCircle
 10
129.537583
 20
98.325611
 30
0.0
 40
0.75
  0
CIRCLE
  5
30D
100
AcDbEntity
  8
SOLDERMASK_PADS_TOP
100
AcDbCircle
 10
129.537583
 20
95.785611
 30
0.0
 40
0.75
  0
CIRCLE
  5
30E
100
AcDbEntity
  8
SOLDERMASK_PADS_TOP
100
AcDbCircle
 10
111.757583
 20
98.325611
 30
0.0
 40
0.75
  0
CIRCLE
  5
30F
100
AcDbEntity
  8
SOLDERMASK_PADS_TOP
100
AcDbCircle
 10
111.757583
 20
95.785611
 30
0.0
 40
0.75
  0
CIRCLE
  5
310
100
AcDbEntity
  8
SOLDERMASK_PADS_TOP
100
AcDbCircle
 10
99.057583
 20
95.785611
 30
0.0
 40
0.75
  0
CIRCLE
  5
311
100
AcDbEntity
  8
SOLDERMASK_PADS_TOP
100
AcDbCircle
 10
116.837583
 20
98.325611
 30
0.0
 40
0.75
  0
CIRCLE
  5
312
100
AcDbEntity
  8
SOLDERMASK_PADS_TOP
100
AcDbCircle
 10
114.297583
 20
98.325611
 30
0.0
 40
0.75
  0
CIRCLE
  5
313
100
AcDbEntity
  8
SOLDERMASK_PADS_TOP
100
AcDbCircle
 10
114.297583
 20
95.785611
 30
0.0
 40
0.75
  0
CIRCLE
  5
314
100
AcDbEntity
  8
SOLDERMASK_PADS_TOP
100
AcDbCircle
 10
104.137583
 20
95.785611
 30
0.0
 40
0.75
  0
CIRCLE
  5
315
100
AcDbEntity
  8
SOLDERMASK_PADS_TOP
100
AcDbCircle
 10
121.917583
 20
95.785611
 30
0.0
 40
0.75
  0
CIRCLE
  5
316
100
AcDbEntity
  8
SOLDERMASK_PADS_TOP
100
AcDbCircle
 10
124.457583
 20
95.785611
 30
0.0
 40
0.75
  0
CIRCLE
  5
317
100
AcDbEntity
  8
SOLDERMASK_PADS_TOP
100
AcDbCircle
 10
121.917583
 20
98.325611
 30
0.0
 40
0.75
  0
CIRCLE
  5
318
100
AcDbEntity
  8
SOLDERMASK_PADS_TOP
100
AcDbCircle
 10
116.837583
 20
95.785611
 30
0.0
 40
0.75
  0
CIRCLE
  5
319
100
AcDbEntity
  8
SOLDERMASK_PADS_TOP
100
AcDbCircle
 10
119.377583
 20
98.325611
 30
0.0
 40
0.75
  0
CIRCLE
  5
31A
100
AcDbEntity
  8
SOLDERMASK_PADS_TOP
100
AcDbCircle
 10
119.377583
 20
95.785611
 30
0.0
 40
0.75
  0
CIRCLE
  5
31B
100
AcDbEntity
  8
SOLDERMASK_PADS_TOP
100
AcDbCircle
 10
99.057583
 20
98.325611
 30
0.0
 40
0.75
  0
CIRCLE
  5
31C
100
AcDbEntity
  8
SOLDERMASK_PADS_TOP
100
AcDbCircle
 10
132.077583
 20
95.785611
 30
0.0
 40
0.75
  0
CIRCLE
  5
31D
100
AcDbEntity
  8
SOLDERMASK_PADS_TOP
100
AcDbCircle
 10
132.077583
 20
98.325611
 30
0.0
 40
0.75
  0
CIRCLE
  5
31E
100
AcDbEntity
  8
SOLDERMASK_PADS_TOP
100
AcDbCircle
 10
124.457583
 20
98.325611
 30
0.0
 40
0.75
  0
CIRCLE
  5
31F
100
AcDbEntity
  8
SOLDERMASK_PADS_TOP
100
AcDbCircle
 10
106.677583
 20
98.325611
 30
0.0
 40
0.75
  0
CIRCLE
  5
320
100
AcDbEntity
  8
SOLDERMASK_PADS_TOP
100
AcDbCircle
 10
106.677583
 20
95.785611
 30
0.0
 40
0.75
  0
CIRCLE
  5
321
100
AcDbEntity
  8
SOLDERMASK_PADS_TOP
100
AcDbCircle
 10
104.137583
 20
98.325611
 30
0.0
 40
0.75
  0
CIRCLE
  5
322
100
AcDbEntity
  8
SOLDERMASK_PADS_TOP
100
AcDbCircle
 10
101.597583
 20
98.325611
 30
0.0
 40
0.75
  0
CIRCLE
  5
323
100
AcDbEntity
  8
SOLDERMASK_PADS_TOP
100
AcDbCircle
 10
101.597583
 20
95.785611
 30
0.0
 40
0.75
  0
CIRCLE
  5
324
100
AcDbEntity
  8
SOLDERMASK_PADS_TOP
100
AcDbCircle
 10
96.517583
 20
98.325611
 30
0.0
 40
0.75
  0
CIRCLE
  5
325
100
AcDbEntity
  8
SOLDERMASK_PADS_TOP
100
AcDbCircle
 10
91.437583
 20
98.325611
 30
0.0
 40
0.75
  0
CIRCLE
  5
326
100
AcDbEntity
  8
SOLDERMASK_PADS_TOP
100
AcDbCircle
 10
91.437583
 20
95.785611
 30
0.0
 40
0.75
  0
CIRCLE
  5
327
100
AcDbEntity
  8
SOLDERMASK_PADS_TOP
100
AcDbCircle
 10
88.897583
 20
95.785611
 30
0.0
 40
0.75
  0
CIRCLE
  5
328
100
AcDbEntity
  8
SOLDERMASK_PADS_TOP
100
AcDbCircle
 10
96.517583
 20
95.785611
 30
0.0
 40
0.75
  0
CIRCLE
  5
329
100
AcDbEntity
  8
SOLDERMASK_PADS_TOP
100
AcDbCircle
 10
93.977583
 20
98.325611
 30
0.0
 40
0.75
  0
CIRCLE
  5
32A
100
AcDbEntity
  8
SOLDERMASK_PADS_TOP
100
AcDbCircle
 10
144.22
 20
57.2
 30
0.0
 40
0.7
  0
LWPOLYLINE
  5
32B
100
AcDbEntity
  8
SOLDERMASK_PADS_TOP
100
AcDbPolyline
 90
        4
 70
         1
 10
148.6
 20
56.5
 10
148.6
 20
57.9
 10
150.0
 20
57.9
 10
150.0
 20
56.5
  0
CIRCLE
  5
32C
100
AcDbEntity
  8
SOLDERMASK_PADS_TOP
100
AcDbCircle
 10
146.76
 20
57.2
 30
0.0
 40
0.7
  0
LWPOLYLINE
  5
32D
100
AcDbEntity
  8
SOLDERMASK_PADS_TOP
100
AcDbPolyline
 90
        4
 70
         1
 10
140.25
 20
35.0
 42
-1.0
 10
139.25
 20
35.0
 10
139.25
 20
37.0
 42
-1.0
 10
140.25
 20
37.0
  0
LWPOLYLINE
  5
32E
100
AcDbEntity
  8
SOLDERMASK_PADS_TOP
100
AcDbPolyline
 90
        4
 70
         1
 10
140.25
 20
42.4
 42
-1.0
 10
139.25
 20
42.4
 10
139.25
 20
44.4
 42
-1.0
 10
140.25
 20
44.4
  0
LWPOLYLINE
  5
32F
100
AcDbEntity
  8
SOLDERMASK_PADS_TOP
100
AcDbPolyline
 90
        4
 70
         1
 10
135.75
 20
35.0
 42
-1.0
 10
134.75
 20
35.0
 10
134.75
 20
37.0
 42
-1.0
 10
135.75
 20
37.0
  0
LWPOLYLINE
  5
330
100
AcDbEntity
  8
SOLDERMASK_PADS_TOP
100
AcDbPolyline
 90
        4
 70
         1
 10
135.75
 20
42.4
 42
-1.0
 10
134.75
 20
42.4
 10
134.75
 20
44.4
 42
-1.0
 10
135.75
 20
44.4
  0
LWPOLYLINE
  5
331
100
AcDbEntity
  8
SOLDERMASK_PADS_TOP
100
AcDbPolyline
 90
        4
 70
         1
 10
92.65
 20
19.3
 10
92.65
 20
23.3
 10
95.15
 20
23.3
 10
95.15
 20
19.3
  0
LWPOLYLINE
  5
332
100
AcDbEntity
  8
SOLDERMASK_PADS_TOP
100
AcDbPolyline
 90
        4
 70
         1
 10
92.65
 20
3.8
 10
92.65
 20
7.8
 10
95.15
 20
7.8
 10
95.15
 20
3.8
  0
CIRCLE
  5
333
100
AcDbEntity
  8
SOLDERMASK_PADS_TOP
100
AcDbCircle
 10
148.9
 20
8.535
 30
0.0
 40
0.75
  0
CIRCLE
  5
334
100
AcDbEntity
  8
SOLDERMASK_PADS_TOP
100
AcDbCircle
 10
146.36
 20
7.265
 30
0.0
 40
0.75
  0
CIRCLE
  5
335
100
AcDbEntity
  8
SOLDERMASK_PADS_TOP
100
AcDbCircle
 10
152.2
 20
15.77
 30
0.0
 40
1.25
  0
CIRCLE
  5
336
100
AcDbEntity
  8
SOLDERMASK_PADS_TOP
100
AcDbCircle
 10
148.9
 20
11.075
 30
0.0
 40
0.75
  0
LWPOLYLINE
  5
337
100
AcDbEntity
  8
SOLDERMASK_PADS_TOP
100
AcDbPolyline
 90
        4
 70
         1
 10
148.1
 20
2.655
 10
148.1
 20
4.255
 10
149.7
 20
4.255
 10
149.7
 20
2.655
  0
CIRCLE
  5
338
100
AcDbEntity
  8
SOLDERMASK_PADS_TOP
100
AcDbCircle
 10
146.36
 20
12.345
 30
0.0
 40
0.75
  0
CIRCLE
  5
339
100
AcDbEntity
  8
SOLDERMASK_PADS_TOP
100
AcDbCircle
 10
146.36
 20
4.725
 30
0.0
 40
0.75
  0
CIRCLE
  5
33A
100
AcDbEntity
  8
SOLDERMASK_PADS_TOP
100
AcDbCircle
 10
160.33
 20
1.57
 30
0.0
 40
0.9
  0
CIRCLE
  5
33B
100
AcDbEntity
  8
SOLDERMASK_PADS_TOP
100
AcDbCircle
 10
141.53
 20
2.44
 30
0.0
 40
1.05
  0
CIRCLE
  5
33C
100
AcDbEntity
  8
SOLDERMASK_PADS_TOP
100
AcDbCircle
 10
158.63
 20
4.11
 30
0.0
 40
0.9
  0
CIRCLE
  5
33D
100
AcDbEntity
  8
SOLDERMASK_PADS_TOP
100
AcDbCircle
 10
141.53
 20
4.98
 30
0.0
 40
1.05
  0
CIRCLE
  5
33E
100
AcDbEntity
  8
SOLDERMASK_PADS_TOP
100
AcDbCircle
 10
160.33
 20
11.69
 30
0.0
 40
0.9
  0
CIRCLE
  5
33F
100
AcDbEntity
  8
SOLDERMASK_PADS_TOP
100
AcDbCircle
 10
141.53
 20
10.82
 30
0.0
 40
1.05
  0
CIRCLE
  5
340
100
AcDbEntity
  8
SOLDERMASK_PADS_TOP
100
AcDbCircle
 10
158.63
 20
14.23
 30
0.0
 40
0.9
  0
CIRCLE
  5
341
100
AcDbEntity
  8
SOLDERMASK_PADS_TOP
100
AcDbCircle
 10
141.53
 20
13.36
 30
0.0
 40
1.05
  0
CIRCLE
  5
342
100
AcDbEntity
  8
SOLDERMASK_PADS_TOP
100
AcDbCircle
 10
152.2
 20
0.03
 30
0.0
 40
1.25
  0
CIRCLE
  5
343
100
AcDbEntity
  8
SOLDERMASK_PADS_TOP
100
AcDbCircle
 10
148.9
 20
5.995
 30
0.0
 40
0.75
  0
CIRCLE
  5
344
100
AcDbEntity
  8
SOLDERMASK_PADS_TOP
100
AcDbCircle
 10
146.36
 20
9.805
 30
0.0
 40
0.75
  0
LWPOLYLINE
  5
345
100
AcDbEntity
  8
SOLDERMASK_PADS_TOP
100
AcDbPolyline
 90
        4
 70
         1
 10
126.677944
 20
15.687796
 42
-1.0
 10
126.377944
 20
15.687796
 10
126.377944
 20
16.937796
 42
-1.0
 10
126.677944
 20
16.937796
  0
LWPOLYLINE
  5
346
100
AcDbEntity
  8
SOLDERMASK_PADS_TOP
100
AcDbPolyline
 90
        4
 70
         1
 10
126.177944
 20
15.687796
 42
-1.0
 10
125.877944
 20
15.687796
 10
125.877944
 20
16.937796
 42
-1.0
 10
126.177944
 20
16.937796
  0
LWPOLYLINE
  5
347
100
AcDbEntity
  8
SOLDERMASK_PADS_TOP
100
AcDbPolyline
 90
        4
 70
         1
 10
125.677944
 20
15.687796
 42
-1.0
 10
125.377944
 20
15.687796
 10
125.377944
 20
16.937796
 42
-1.0
 10
125.677944
 20
16.937796
  0
LWPOLYLINE
  5
348
100
AcDbEntity
  8
SOLDERMASK_PADS_TOP
100
AcDbPolyline
 90
        4
 70
         1
 10
125.177944
 20
15.687796
 42
-1.0
 10
124.877944
 20
15.687796
 10
124.877944
 20
16.937796
 42
-1.0
 10
125.177944
 20
16.937796
  0
LWPOLYLINE
  5
349
100
AcDbEntity
  8
SOLDERMASK_PADS_TOP
100
AcDbPolyline
 90
        4
 70
         1
 10
124.677944
 20
15.687796
 42
-1.0
 10
124.377944
 20
15.687796
 10
124.377944
 20
16.937796
 42
-1.0
 10
124.677944
 20
16.937796
  0
LWPOLYLINE
  5
34A
100
AcDbEntity
  8
SOLDERMASK_PADS_TOP
100
AcDbPolyline
 90
        4
 70
         1
 10
124.177944
 20
15.687796
 42
-1.0
 10
123.877944
 20
15.687796
 10
123.877944
 20
16.937796
 42
-1.0
 10
124.177944
 20
16.937796
  0
LWPOLYLINE
  5
34B
100
AcDbEntity
  8
SOLDERMASK_PADS_TOP
100
AcDbPolyline
 90
        4
 70
         1
 10
123.677944
 20
15.687796
 42
-1.0
 10
123.377944
 20
15.687796
 10
123.377944
 20
16.937796
 42
-1.0
 10
123.677944
 20
16.937796
  0
LWPOLYLINE
  5
34C
100
AcDbEntity
  8
SOLDERMASK_PADS_TOP
100
AcDbPolyline
 90
        4
 70
         1
 10
123.177944
 20
15.687796
 42
-1.0
 10
122.877944
 20
15.687796
 10
122.877944
 20
16.937796
 42
-1.0
 10
123.177944
 20
16.937796
  0
LWPOLYLINE
  5
34D
100
AcDbEntity
  8
SOLDERMASK_PADS_TOP
100
AcDbPolyline
 90
        4
 70
         1
 10
122.677944
 20
15.687796
 42
-1.0
 10
122.377944
 20
15.687796
 10
122.377944
 20
16.937796
 42
-1.0
 10
122.677944
 20
16.937796
  0
LWPOLYLINE
  5
34E
100
AcDbEntity
  8
SOLDERMASK_PADS_TOP
100
AcDbPolyline
 90
        4
 70
         1
 10
122.177944
 20
15.687796
 42
-1.0
 10
121.877944
 20
15.687796
 10
121.877944
 20
16.937796
 42
-1.0
 10
122.177944
 20
16.937796
  0
LWPOLYLINE
  5
34F
100
AcDbEntity
  8
SOLDERMASK_PADS_TOP
100
AcDbPolyline
 90
        4
 70
         1
 10
121.677944
 20
15.687796
 42
-1.0
 10
121.377944
 20
15.687796
 10
121.377944
 20
16.937796
 42
-1.0
 10
121.677944
 20
16.937796
  0
LWPOLYLINE
  5
350
100
AcDbEntity
  8
SOLDERMASK_PADS_TOP
100
AcDbPolyline
 90
        4
 70
         1
 10
121.177944
 20
15.687796
 42
-1.0
 10
120.877944
 20
15.687796
 10
120.877944
 20
16.937796
 42
-1.0
 10
121.177944
 20
16.937796
  0
LWPOLYLINE
  5
351
100
AcDbEntity
  8
SOLDERMASK_PADS_TOP
100
AcDbPolyline
 90
        4
 70
         1
 10
120.202944
 20
15.012796
 42
-1.0
 10
120.202944
 20
14.712796
 10
118.952944
 20
14.712796
 42
-1.0
 10
118.952944
 20
15.012796
  0
LWPOLYLINE
  5
352
100
AcDbEntity
  8
SOLDERMASK_PADS_TOP
100
AcDbPolyline
 90
        4
 70
         1
 10
120.202944
 20
14.512796
 42
-1.0
 10
120.202944
 20
14.212796
 10
118.952944
 20
14.212796
 42
-1.0
 10
118.952944
 20
14.512796
  0
LWPOLYLINE
  5
353
100
AcDbEntity
  8
SOLDERMASK_PADS_TOP
100
AcDbPolyline
 90
        4
 70
         1
 10
120.202944
 20
14.012796
 42
-1.0
 10
120.202944
 20
13.712796
 10
118.952944
 20
13.712796
 42
-1.0
 10
118.952944
 20
14.012796
  0
LWPOLYLINE
  5
354
100
AcDbEntity
  8
SOLDERMASK_PADS_TOP
100
AcDbPolyline
 90
        4
 70
         1
 10
120.202944
 20
13.512796
 42
-1.0
 10
120.202944
 20
13.212796
 10
118.952944
 20
13.212796
 42
-1.0
 10
118.952944
 20
13.512796
  0
LWPOLYLINE
  5
355
100
AcDbEntity
  8
SOLDERMASK_PADS_TOP
100
AcDbPolyline
 90
        4
 70
         1
 10
120.202944
 20
13.012796
 42
-1.0
 10
120.202944
 20
12.712796
 10
118.952944
 20
12.712796
 42
-1.0
 10
118.952944
 20
13.012796
  0
LWPOLYLINE
  5
356
100
AcDbEntity
  8
SOLDERMASK_PADS_TOP
100
AcDbPolyline
 90
        4
 70
         1
 10
120.202944
 20
12.512796
 42
-1.0
 10
120.202944
 20
12.212796
 10
118.952944
 20
12.212796
 42
-1.0
 10
118.952944
 20
12.512796
  0
LWPOLYLINE
  5
357
100
AcDbEntity
  8
SOLDERMASK_PADS_TOP
100
AcDbPolyline
 90
        4
 70
         1
 10
120.202944
 20
12.012796
 42
-1.0
 10
120.202944
 20
11.712796
 10
118.952944
 20
11.712796
 42
-1.0
 10
118.952944
 20
12.012796
  0
LWPOLYLINE
  5
358
100
AcDbEntity
  8
SOLDERMASK_PADS_TOP
100
AcDbPolyline
 90
        4
 70
         1
 10
120.202944
 20
11.512796
 42
-1.0
 10
120.202944
 20
11.212796
 10
118.952944
 20
11.212796
 42
-1.0
 10
118.952944
 20
11.512796
  0
LWPOLYLINE
  5
359
100
AcDbEntity
  8
SOLDERMASK_PADS_TOP
100
AcDbPolyline
 90
        4
 70
         1
 10
120.202944
 20
11.012796
 42
-1.0
 10
120.202944
 20
10.712796
 10
118.952944
 20
10.712796
 42
-1.0
 10
118.952944
 20
11.012796
  0
LWPOLYLINE
  5
35A
100
AcDbEntity
  8
SOLDERMASK_PADS_TOP
100
AcDbPolyline
 90
        4
 70
         1
 10
120.202944
 20
10.512796
 42
-1.0
 10
120.202944
 20
10.212796
 10
118.952944
 20
10.212796
 42
-1.0
 10
118.952944
 20
10.512796
  0
LWPOLYLINE
  5
35B
100
AcDbEntity
  8
SOLDERMASK_PADS_TOP
100
AcDbPolyline
 90
        4
 70
         1
 10
120.202944
 20
9.512796
 42
-1.0
 10
120.202944
 20
9.212796
 10
118.952944
 20
9.212796
 42
-1.0
 10
118.952944
 20
9.512796
  0
LWPOLYLINE
  5
35C
100
AcDbEntity
  8
SOLDERMASK_PADS_TOP
100
AcDbPolyline
 90
        4
 70
         1
 10
121.177944
 20
7.287796
 42
-1.0
 10
120.877944
 20
7.287796
 10
120.877944
 20
8.537796
 42
-1.0
 10
121.177944
 20
8.537796
  0
LWPOLYLINE
  5
35D
100
AcDbEntity
  8
SOLDERMASK_PADS_TOP
100
AcDbPolyline
 90
        4
 70
         1
 10
121.677944
 20
7.287796
 42
-1.0
 10
121.377944
 20
7.287796
 10
121.377944
 20
8.537796
 42
-1.0
 10
121.677944
 20
8.537796
  0
LWPOLYLINE
  5
35E
100
AcDbEntity
  8
SOLDERMASK_PADS_TOP
100
AcDbPolyline
 90
        4
 70
         1
 10
122.177944
 20
7.287796
 42
-1.0
 10
121.877944
 20
7.287796
 10
121.877944
 20
8.537796
 42
-1.0
 10
122.177944
 20
8.537796
  0
LWPOLYLINE
  5
35F
100
AcDbEntity
  8
SOLDERMASK_PADS_TOP
100
AcDbPolyline
 90
        4
 70
         1
 10
122.677944
 20
7.287796
 42
-1.0
 10
122.377944
 20
7.287796
 10
122.377944
 20
8.537796
 42
-1.0
 10
122.677944
 20
8.537796
  0
LWPOLYLINE
  5
360
100
AcDbEntity
  8
SOLDERMASK_PADS_TOP
100
AcDbPolyline
 90
        4
 70
         1
 10
123.177944
 20
7.287796
 42
-1.0
 10
122.877944
 20
7.287796
 10
122.877944
 20
8.537796
 42
-1.0
 10
123.177944
 20
8.537796
  0
LWPOLYLINE
  5
361
100
AcDbEntity
  8
SOLDERMASK_PADS_TOP
100
AcDbPolyline
 90
        4
 70
         1
 10
123.677944
 20
7.287796
 42
-1.0
 10
123.377944
 20
7.287796
 10
123.377944
 20
8.537796
 42
-1.0
 10
123.677944
 20
8.537796
  0
LWPOLYLINE
  5
362
100
AcDbEntity
  8
SOLDERMASK_PADS_TOP
100
AcDbPolyline
 90
        4
 70
         1
 10
124.177944
 20
7.287796
 42
-1.0
 10
123.877944
 20
7.287796
 10
123.877944
 20
8.537796
 42
-1.0
 10
124.177944
 20
8.537796
  0
LWPOLYLINE
  5
363
100
AcDbEntity
  8
SOLDERMASK_PADS_TOP
100
AcDbPolyline
 90
        4
 70
         1
 10
124.677944
 20
7.287796
 42
-1.0
 10
124.377944
 20
7.287796
 10
124.377944
 20
8.537796
 42
-1.0
 10
124.677944
 20
8.537796
  0
LWPOLYLINE
  5
364
100
AcDbEntity
  8
SOLDERMASK_PADS_TOP
100
AcDbPolyline
 90
        4
 70
         1
 10
125.177944
 20
7.287796
 42
-1.0
 10
124.877944
 20
7.287796
 10
124.877944
 20
8.537796
 42
-1.0
 10
125.177944
 20
8.537796
  0
LWPOLYLINE
  5
365
100
AcDbEntity
  8
SOLDERMASK_PADS_TOP
100
AcDbPolyline
 90
        4
 70
         1
 10
125.677944
 20
7.287796
 42
-1.0
 10
125.377944
 20
7.287796
 10
125.377944
 20
8.537796
 42
-1.0
 10
125.677944
 20
8.537796
  0
LWPOLYLINE
  5
366
100
AcDbEntity
  8
SOLDERMASK_PADS_TOP
100
AcDbPolyline
 90
        4
 70
         1
 10
126.177944
 20
7.287796
 42
-1.0
 10
125.877944
 20
7.287796
 10
125.877944
 20
8.537796
 42
-1.0
 10
126.177944
 20
8.537796
  0
LWPOLYLINE
  5
367
100
AcDbEntity
  8
SOLDERMASK_PADS_TOP
100
AcDbPolyline
 90
        4
 70
         1
 10
126.677944
 20
7.287796
 42
-1.0
 10
126.377944
 20
7.287796
 10
126.377944
 20
8.537796
 42
-1.0
 10
126.677944
 20
8.537796
  0
LWPOLYLINE
  5
368
100
AcDbEntity
  8
SOLDERMASK_PADS_TOP
100
AcDbPolyline
 90
        4
 70
         1
 10
128.602944
 20
9.512796
 42
-1.0
 10
128.602944
 20
9.212796
 10
127.352944
 20
9.212796
 42
-1.0
 10
127.352944
 20
9.512796
  0
LWPOLYLINE
  5
369
100
AcDbEntity
  8
SOLDERMASK_PADS_TOP
100
AcDbPolyline
 90
        4
 70
         1
 10
128.602944
 20
10.012796
 42
-1.0
 10
128.602944
 20
9.712796
 10
127.352944
 20
9.712796
 42
-1.0
 10
127.352944
 20
10.012796
  0
LWPOLYLINE
  5
36A
100
AcDbEntity
  8
SOLDERMASK_PADS_TOP
100
AcDbPolyline
 90
        4
 70
         1
 10
128.602944
 20
10.512796
 42
-1.0
 10
128.602944
 20
10.212796
 10
127.352944
 20
10.212796
 42
-1.0
 10
127.352944
 20
10.512796
  0
LWPOLYLINE
  5
36B
100
AcDbEntity
  8
SOLDERMASK_PADS_TOP
100
AcDbPolyline
 90
        4
 70
         1
 10
128.602944
 20
11.012796
 42
-1.0
 10
128.602944
 20
10.712796
 10
127.352944
 20
10.712796
 42
-1.0
 10
127.352944
 20
11.012796
  0
LWPOLYLINE
  5
36C
100
AcDbEntity
  8
SOLDERMASK_PADS_TOP
100
AcDbPolyline
 90
        4
 70
         1
 10
128.602944
 20
11.512796
 42
-1.0
 10
128.602944
 20
11.212796
 10
127.352944
 20
11.212796
 42
-1.0
 10
127.352944
 20
11.512796
  0
LWPOLYLINE
  5
36D
100
AcDbEntity
  8
SOLDERMASK_PADS_TOP
100
AcDbPolyline
 90
        4
 70
         1
 10
128.602944
 20
12.012796
 42
-1.0
 10
128.602944
 20
11.712796
 10
127.352944
 20
11.712796
 42
-1.0
 10
127.352944
 20
12.012796
  0
LWPOLYLINE
  5
36E
100
AcDbEntity
  8
SOLDERMASK_PADS_TOP
100
AcDbPolyline
 90
        4
 70
         1
 10
128.602944
 20
12.512796
 42
-1.0
 10
128.602944
 20
12.212796
 10
127.352944
 20
12.212796
 42
-1.0
 10
127.352944
 20
12.512796
  0
LWPOLYLINE
  5
36F
100
AcDbEntity
  8
SOLDERMASK_PADS_TOP
100
AcDbPolyline
 90
        4
 70
         1
 10
128.602944
 20
13.012796
 42
-1.0
 10
128.602944
 20
12.712796
 10
127.352944
 20
12.712796
 42
-1.0
 10
127.352944
 20
13.012796
  0
LWPOLYLINE
  5
370
100
AcDbEntity
  8
SOLDERMASK_PADS_TOP
100
AcDbPolyline
 90
        4
 70
         1
 10
128.602944
 20
13.512796
 42
-1.0
 10
128.602944
 20
13.212796
 10
127.352944
 20
13.212796
 42
-1.0
 10
127.352944
 20
13.512796
  0
LWPOLYLINE
  5
371
100
AcDbEntity
  8
SOLDERMASK_PADS_TOP
100
AcDbPolyline
 90
        4
 70
         1
 10
128.602944
 20
14.012796
 42
-1.0
 10
128.602944
 20
13.712796
 10
127.352944
 20
13.712796
 42
-1.0
 10
127.352944
 20
14.012796
  0
LWPOLYLINE
  5
372
100
AcDbEntity
  8
SOLDERMASK_PADS_TOP
100
AcDbPolyline
 90
        4
 70
         1
 10
128.602944
 20
14.512796
 42
-1.0
 10
128.602944
 20
14.212796
 10
127.352944
 20
14.212796
 42
-1.0
 10
127.352944
 20
14.512796
  0
LWPOLYLINE
  5
373
100
AcDbEntity
  8
SOLDERMASK_PADS_TOP
100
AcDbPolyline
 90
        4
 70
         1
 10
128.602944
 20
15.012796
 42
-1.0
 10
128.602944
 20
14.712796
 10
127.352944
 20
14.712796
 42
-1.0
 10
127.352944
 20
15.012796
  0
LWPOLYLINE
  5
374
100
AcDbEntity
  8
SOLDERMASK_PADS_TOP
100
AcDbPolyline
 90
        4
 70
         1
 10
120.202944
 20
10.012796
 42
-1.0
 10
120.202944
 20
9.712796
 10
118.952944
 20
9.712796
 42
-1.0
 10
118.952944
 20
10.012796
  0
CIRCLE
  5
375
100
AcDbEntity
  8
SOLDERMASK_PADS_TOP
100
AcDbCircle
 10
103.628006
 20
48.655354
 30
0.0
 40
0.75
  0
CIRCLE
  5
376
100
AcDbEntity
  8
SOLDERMASK_PADS_TOP
100
AcDbCircle
 10
103.628006
 20
43.775354
 30
0.0
 40
0.75
  0
LWPOLYLINE
  5
377
100
AcDbEntity
  8
SOLDERMASK_PADS_TOP
100
AcDbPolyline
 90
        4
 70
         1
 10
139.0
 20
66.8
 10
139.0
 20
68.2
 10
140.0
 20
68.2
 10
140.0
 20
66.8
  0
LWPOLYLINE
  5
378
100
AcDbEntity
  8
SOLDERMASK_PADS_TOP
100
AcDbPolyline
 90
        4
 70
         1
 10
140.8
 20
66.8
 10
140.8
 20
68.2
 10
141.8
 20
68.2
 10
141.8
 20
66.8
  0
LWPOLYLINE
  5
379
100
AcDbEntity
  8
SOLDERMASK_PADS_TOP
100
AcDbPolyline
 90
        4
 70
         1
 10
96.5
 20
91.0
 10
96.5
 20
92.4
 10
97.9
 20
92.4
 10
97.9
 20
91.0
  0
CIRCLE
  5
37A
100
AcDbEntity
  8
SOLDERMASK_PADS_TOP
100
AcDbCircle
 10
99.74
 20
91.7
 30
0.0
 40
0.7
  0
CIRCLE
  5
37B
100
AcDbEntity
  8
SOLDERMASK_PADS_TOP
100
AcDbCircle
 10
102.28
 20
91.7
 30
0.0
 40
0.7
  0
LWPOLYLINE
  5
37C
100
AcDbEntity
  8
SOLDERMASK_PADS_TOP
100
AcDbPolyline
 90
        4
 70
         1
 10
155.0
 20
48.7
 10
155.0
 20
50.1
 10
156.4
 20
50.1
 10
156.4
 20
48.7
  0
CIRCLE
  5
37D
100
AcDbEntity
  8
SOLDERMASK_PADS_TOP
100
AcDbCircle
 10
153.16
 20
49.4
 30
0.0
 40
0.7
  0
LWPOLYLINE
  5
37E
100
AcDbEntity
  8
SOLDERMASK_PADS_TOP
100
AcDbPolyline
 90
        4
 70
         1
 10
138.45
 20
16.175
 10
138.45
 20
18.425
 10
140.25
 20
18.425
 10
140.25
 20
16.175
  0
LWPOLYLINE
  5
37F
100
AcDbEntity
  8
SOLDERMASK_PADS_TOP
100
AcDbPolyline
 90
        4
 70
         1
 10
135.55
 20
16.175
 10
135.55
 20
18.425
 10
137.35
 20
18.425
 10
137.35
 20
16.175
  0
CIRCLE
  5
380
100
AcDbEntity
  8
SOLDERMASK_PADS_TOP
100
AcDbCircle
 10
153.360469
 20
78.689351
 30
0.0
 40
0.75
  0
CIRCLE
  5
381
100
AcDbEntity
  8
SOLDERMASK_PADS_TOP
100
AcDbCircle
 10
150.820469
 20
76.149351
 30
0.0
 40
0.75
  0
CIRCLE
  5
382
100
AcDbEntity
  8
SOLDERMASK_PADS_TOP
100
AcDbCircle
 10
153.360469
 20
76.149351
 30
0.0
 40
0.75
  0
LWPOLYLINE
  5
383
100
AcDbEntity
  8
SOLDERMASK_PADS_TOP
100
AcDbPolyline
 90
        4
 70
         1
 10
150.020469
 20
77.889351
 10
150.020469
 20
79.489351
 10
151.620469
 20
79.489351
 10
151.620469
 20
77.889351
  0
CIRCLE
  5
384
100
AcDbEntity
  8
SOLDERMASK_PADS_TOP
100
AcDbCircle
 10
155.620469
 20
83.489351
 30
0.0
 40
1.65
  0
CIRCLE
  5
385
100
AcDbEntity
  8
SOLDERMASK_PADS_TOP
100
AcDbCircle
 10
155.620469
 20
71.489351
 30
0.0
 40
1.65
  0
LWPOLYLINE
  5
386
100
AcDbEntity
  8
SOLDERMASK_PADS_TOP
100
AcDbPolyline
 90
        4
 70
         1
 10
134.1
 20
79.675
 10
134.1
 20
82.825
 10
135.7
 20
82.825
 10
135.7
 20
79.675
  0
LWPOLYLINE
  5
387
100
AcDbEntity
  8
SOLDERMASK_PADS_TOP
100
AcDbPolyline
 90
        4
 70
         1
 10
134.1
 20
84.575
 10
134.1
 20
87.725
 10
135.7
 20
87.725
 10
135.7
 20
84.575
  0
LWPOLYLINE
  5
388
100
AcDbEntity
  8
SOLDERMASK_PADS_TOP
100
AcDbPolyline
 90
        4
 70
         1
 10
111.8
 20
15.725
 10
111.8
 20
18.325
 10
113.7
 20
18.325
 10
113.7
 20
15.725
  0
LWPOLYLINE
  5
389
100
AcDbEntity
  8
SOLDERMASK_PADS_TOP
100
AcDbPolyline
 90
        4
 70
         1
 10
107.9
 20
15.725
 10
107.9
 20
18.325
 10
109.8
 20
18.325
 10
109.8
 20
15.725
  0
LWPOLYLINE
  5
38A
100
AcDbEntity
  8
SOLDERMASK_PADS_TOP
100
AcDbPolyline
 90
        4
 70
         1
 10
107.9
 20
10.075
 10
107.9
 20
12.675
 10
109.8
 20
12.675
 10
109.8
 20
10.075
  0
LWPOLYLINE
  5
38B
100
AcDbEntity
  8
SOLDERMASK_PADS_TOP
100
AcDbPolyline
 90
        4
 70
         1
 10
111.8
 20
10.075
 10
111.8
 20
12.675
 10
113.7
 20
12.675
 10
113.7
 20
10.075
  0
LWPOLYLINE
  5
38C
100
AcDbEntity
  8
SOLDERMASK_PADS_TOP
100
AcDbPolyline
 90
        4
 70
         1
 10
97.1
 20
75.025
 42
-1.0
 10
97.1
 20
74.025
 10
95.1
 20
74.025
 42
-1.0
 10
95.1
 20
75.025
  0
LWPOLYLINE
  5
38D
100
AcDbEntity
  8
SOLDERMASK_PADS_TOP
100
AcDbPolyline
 90
        4
 70
         1
 10
97.1
 20
81.65
 42
-1.0
 10
97.1
 20
80.65
 10
95.1
 20
80.65
 42
-1.0
 10
95.1
 20
81.65
  0
LWPOLYLINE
  5
38E
100
AcDbEntity
  8
SOLDERMASK_PADS_TOP
100
AcDbPolyline
 90
        4
 70
         1
 10
97.1
 20
80.025
 42
-1.0
 10
97.1
 20
79.025
 10
95.1
 20
79.025
 42
-1.0
 10
95.1
 20
80.025
  0
LWPOLYLINE
  5
38F
100
AcDbEntity
  8
SOLDERMASK_PADS_TOP
100
AcDbPolyline
 90
        4
 70
         1
 10
97.1
 20
70.025
 42
-1.0
 10
97.1
 20
69.025
 10
95.1
 20
69.025
 42
-1.0
 10
95.1
 20
70.025
  0
LWPOLYLINE
  5
390
100
AcDbEntity
  8
SOLDERMASK_PADS_TOP
100
AcDbPolyline
 90
        4
 70
         1
 10
97.1
 20
67.525
 42
-1.0
 10
97.1
 20
66.525
 10
95.1
 20
66.525
 42
-1.0
 10
95.1
 20
67.525
  0
LWPOLYLINE
  5
391
100
AcDbEntity
  8
SOLDERMASK_PADS_TOP
100
AcDbPolyline
 90
        4
 70
         1
 10
97.1
 20
65.025
 42
-1.0
 10
97.1
 20
64.025
 10
95.1
 20
64.025
 42
-1.0
 10
95.1
 20
65.025
  0
LWPOLYLINE
  5
392
100
AcDbEntity
  8
SOLDERMASK_PADS_TOP
100
AcDbPolyline
 90
        4
 70
         1
 10
97.1
 20
62.525
 42
-1.0
 10
97.1
 20
61.525
 10
95.1
 20
61.525
 42
-1.0
 10
95.1
 20
62.525
  0
LWPOLYLINE
  5
393
100
AcDbEntity
  8
SOLDERMASK_PADS_TOP
100
AcDbPolyline
 90
        4
 70
         1
 10
97.1
 20
60.9
 42
-1.0
 10
97.1
 20
59.9
 10
95.1
 20
59.9
 42
-1.0
 10
95.1
 20
60.9
  0
LWPOLYLINE
  5
394
100
AcDbEntity
  8
SOLDERMASK_PADS_TOP
100
AcDbPolyline
 90
        4
 70
         1
 10
97.1
 20
59.32
 42
-1.0
 10
97.1
 20
58.32
 10
95.1
 20
58.32
 42
-1.0
 10
95.1
 20
59.32
  0
LWPOLYLINE
  5
395
100
AcDbEntity
  8
SOLDERMASK_PADS_TOP
100
AcDbPolyline
 90
        4
 70
         1
 10
97.1
 20
85.2
 42
-1.0
 10
97.1
 20
84.2
 10
95.1
 20
84.2
 42
-1.0
 10
95.1
 20
85.2
  0
LWPOLYLINE
  5
396
100
AcDbEntity
  8
SOLDERMASK_PADS_TOP
100
AcDbPolyline
 90
        4
 70
         1
 10
97.1
 20
83.65
 42
-1.0
 10
97.1
 20
82.65
 10
95.1
 20
82.65
 42
-1.0
 10
95.1
 20
83.65
  0
LWPOLYLINE
  5
397
100
AcDbEntity
  8
SOLDERMASK_PADS_TOP
100
AcDbPolyline
 90
        4
 70
         1
 10
79.2
 20
55.2
 10
79.2
 20
58.1
 10
81.7
 20
58.1
 10
81.7
 20
55.2
  0
LWPOLYLINE
  5
398
100
AcDbEntity
  8
SOLDERMASK_PADS_TOP
100
AcDbPolyline
 90
        4
 70
         1
 10
79.2
 20
86.4
 10
79.2
 20
89.3
 10
81.7
 20
89.3
 10
81.7
 20
86.4
  0
LWPOLYLINE
  5
399
100
AcDbEntity
  8
SOLDERMASK_PADS_TOP
100
AcDbPolyline
 90
        4
 70
         1
 10
97.1
 20
77.525
 42
-1.0
 10
97.1
 20
76.525
 10
95.1
 20
76.525
 42
-1.0
 10
95.1
 20
77.525
  0
LWPOLYLINE
  5
39A
100
AcDbEntity
  8
SOLDERMASK_PADS_TOP
100
AcDbPolyline
 90
        4
 70
         1
 10
97.1
 20
72.525
 42
-1.0
 10
97.1
 20
71.525
 10
95.1
 20
71.525
 42
-1.0
 10
95.1
 20
72.525
  0
LWPOLYLINE
  5
39B
100
AcDbEntity
  8
SOLDERMASK_PADS_TOP
100
AcDbPolyline
 90
        4
 70
         1
 10
116.3
 20
0.7
 10
116.3
 20
2.1
 10
117.7
 20
2.1
 10
117.7
 20
0.7
  0
CIRCLE
  5
39C
100
AcDbEntity
  8
SOLDERMASK_PADS_TOP
100
AcDbCircle
 10
114.46
 20
1.4
 30
0.0
 40
0.7
  0
LWPOLYLINE
  5
39D
100
AcDbEntity
  8
SOLDERMASK_PADS_TOP
100
AcDbPolyline
 90
        4
 70
         1
 10
146.25
 20
79.0
 10
146.25
 20
81.1
 10
148.35
 20
81.1
 10
148.35
 20
79.0
  0
LWPOLYLINE
  5
39E
100
AcDbEntity
  8
SOLDERMASK_PADS_TOP
100
AcDbPolyline
 90
        4
 70
         1
 10
146.25
 20
74.5
 10
146.25
 20
76.6
 10
148.35
 20
76.6
 10
148.35
 20
74.5
  0
LWPOLYLINE
  5
39F
100
AcDbEntity
  8
SOLDERMASK_PADS_TOP
100
AcDbPolyline
 90
        4
 70
         1
 10
161.2
 20
68.1
 10
161.2
 20
69.5
 10
162.6
 20
69.5
 10
162.6
 20
68.1
  0
CIRCLE
  5
3A0
100
AcDbEntity
  8
SOLDERMASK_PADS_TOP
100
AcDbCircle
 10
159.36
 20
68.8
 30
0.0
 40
0.7
  0
CIRCLE
  5
3A1
100
AcDbEntity
  8
SOLDERMASK_PADS_TOP
100
AcDbCircle
 10
159.46
 20
49.4
 30
0.0
 40
0.7
  0
LWPOLYLINE
  5
3A2
100
AcDbEntity
  8
SOLDERMASK_PADS_TOP
100
AcDbPolyline
 90
        4
 70
         1
 10
161.3
 20
48.7
 10
161.3
 20
50.1
 10
162.7
 20
50.1
 10
162.7
 20
48.7
  0
LWPOLYLINE
  5
3A3
100
AcDbEntity
  8
SOLDERMASK_PADS_TOP
100
AcDbPolyline
 90
        4
 70
         1
 10
82.451005
 20
59.548337
 10
82.451005
 20
60.748337
 10
84.451005
 20
60.748337
 10
84.451005
 20
59.548337
  0
LWPOLYLINE
  5
3A4
100
AcDbEntity
  8
SOLDERMASK_PADS_TOP
100
AcDbPolyline
 90
        4
 70
         1
 10
82.451005
 20
74.148337
 10
82.451005
 20
75.348337
 10
84.451005
 20
75.348337
 10
84.451005
 20
74.148337
  0
LWPOLYLINE
  5
3A5
100
AcDbEntity
  8
SOLDERMASK_PADS_TOP
100
AcDbPolyline
 90
        4
 70
         1
 10
92.497795
 20
64.851872
 42
-1.0
 10
92.497795
 20
64.151872
 10
91.197795
 20
64.151872
 42
-1.0
 10
91.197795
 20
64.851872
  0
LWPOLYLINE
  5
3A6
100
AcDbEntity
  8
SOLDERMASK_PADS_TOP
100
AcDbPolyline
 90
        4
 70
         1
 10
92.497795
 20
65.951872
 42
-1.0
 10
92.497795
 20
65.251872
 10
91.197795
 20
65.251872
 42
-1.0
 10
91.197795
 20
65.951872
  0
LWPOLYLINE
  5
3A7
100
AcDbEntity
  8
SOLDERMASK_PADS_TOP
100
AcDbPolyline
 90
        4
 70
         1
 10
92.497795
 20
67.051872
 42
-1.0
 10
92.497795
 20
66.351872
 10
91.197795
 20
66.351872
 42
-1.0
 10
91.197795
 20
67.051872
  0
LWPOLYLINE
  5
3A8
100
AcDbEntity
  8
SOLDERMASK_PADS_TOP
100
AcDbPolyline
 90
        4
 70
         1
 10
92.497795
 20
69.251872
 42
-1.0
 10
92.497795
 20
68.551872
 10
91.197795
 20
68.551872
 42
-1.0
 10
91.197795
 20
69.251872
  0
LWPOLYLINE
  5
3A9
100
AcDbEntity
  8
SOLDERMASK_PADS_TOP
100
AcDbPolyline
 90
        4
 70
         1
 10
92.497795
 20
70.351872
 42
-1.0
 10
92.497795
 20
69.651872
 10
91.197795
 20
69.651872
 42
-1.0
 10
91.197795
 20
70.351872
  0
LWPOLYLINE
  5
3AA
100
AcDbEntity
  8
SOLDERMASK_PADS_TOP
100
AcDbPolyline
 90
        4
 70
         1
 10
92.497795
 20
71.451872
 42
-1.0
 10
92.497795
 20
70.751872
 10
91.197795
 20
70.751872
 42
-1.0
 10
91.197795
 20
71.451872
  0
LWPOLYLINE
  5
3AB
100
AcDbEntity
  8
SOLDERMASK_PADS_TOP
100
AcDbPolyline
 90
        4
 70
         1
 10
92.497795
 20
72.551872
 42
-1.0
 10
92.497795
 20
71.851872
 10
91.197795
 20
71.851872
 42
-1.0
 10
91.197795
 20
72.551872
  0
LWPOLYLINE
  5
3AC
100
AcDbEntity
  8
SOLDERMASK_PADS_TOP
100
AcDbPolyline
 90
        4
 70
         1
 10
92.426545
 20
62.420459
 42
-1.0
 10
92.426545
 20
61.570459
 10
91.276545
 20
61.570459
 42
-1.0
 10
91.276545
 20
62.420459
  0
LWPOLYLINE
  5
3AD
100
AcDbEntity
  8
SOLDERMASK_PADS_TOP
100
AcDbPolyline
 90
        4
 70
         1
 10
92.426545
 20
63.670459
 42
-1.0
 10
92.426545
 20
62.820459
 10
91.276545
 20
62.820459
 42
-1.0
 10
91.276545
 20
63.670459
  0
LWPOLYLINE
  5
3AE
100
AcDbEntity
  8
SOLDERMASK_PADS_TOP
100
AcDbPolyline
 90
        4
 70
         1
 10
92.497795
 20
68.151872
 42
-1.0
 10
92.497795
 20
67.451872
 10
91.197795
 20
67.451872
 42
-1.0
 10
91.197795
 20
68.151872
  0
CIRCLE
  5
3AF
100
AcDbEntity
  8
SOLDERMASK_PADS_TOP
100
AcDbCircle
 10
83.109485
 20
5.615609
 30
0.0
 40
0.75
  0
LWPOLYLINE
  5
3B0
100
AcDbEntity
  8
SOLDERMASK_PADS_TOP
100
AcDbPolyline
 90
        4
 70
         1
 10
82.309485
 20
2.275609
 10
82.309485
 20
3.875609
 10
83.909485
 20
3.875609
 10
83.909485
 20
2.275609
  0
CIRCLE
  5
3B1
100
AcDbEntity
  8
SOLDERMASK_PADS_TOP
100
AcDbCircle
 10
80.569485
 20
5.615609
 30
0.0
 40
0.75
  0
CIRCLE
  5
3B2
100
AcDbEntity
  8
SOLDERMASK_PADS_TOP
100
AcDbCircle
 10
80.569485
 20
3.075609
 30
0.0
 40
0.75
  0
CIRCLE
  5
3B3
100
AcDbEntity
  8
SOLDERMASK_PADS_TOP
100
AcDbCircle
 10
83.109485
 20
38.635609
 30
0.0
 40
0.75
  0
CIRCLE
  5
3B4
100
AcDbEntity
  8
SOLDERMASK_PADS_TOP
100
AcDbCircle
 10
80.569485
 20
15.775609
 30
0.0
 40
0.75
  0
CIRCLE
  5
3B5
100
AcDbEntity
  8
SOLDERMASK_PADS_TOP
100
AcDbCircle
 10
83.109485
 20
20.855609
 30
0.0
 40
0.75
  0
CIRCLE
  5
3B6
100
AcDbEntity
  8
SOLDERMASK_PADS_TOP
100
AcDbCircle
 10
83.109485
 20
23.395609
 30
0.0
 40
0.75
  0
CIRCLE
  5
3B7
100
AcDbEntity
  8
SOLDERMASK_PADS_TOP
100
AcDbCircle
 10
80.569485
 20
33.555609
 30
0.0
 40
0.75
  0
CIRCLE
  5
3B8
100
AcDbEntity
  8
SOLDERMASK_PADS_TOP
100
AcDbCircle
 10
83.109485
 20
33.555609
 30
0.0
 40
0.75
  0
CIRCLE
  5
3B9
100
AcDbEntity
  8
SOLDERMASK_PADS_TOP
100
AcDbCircle
 10
80.569485
 20
31.015609
 30
0.0
 40
0.75
  0
CIRCLE
  5
3BA
100
AcDbEntity
  8
SOLDERMASK_PADS_TOP
100
AcDbCircle
 10
83.109485
 20
31.015609
 30
0.0
 40
0.75
  0
CIRCLE
  5
3BB
100
AcDbEntity
  8
SOLDERMASK_PADS_TOP
100
AcDbCircle
 10
80.569485
 20
36.095609
 30
0.0
 40
0.75
  0
CIRCLE
  5
3BC
100
AcDbEntity
  8
SOLDERMASK_PADS_TOP
100
AcDbCircle
 10
83.109485
 20
36.095609
 30
0.0
 40
0.75
  0
CIRCLE
  5
3BD
100
AcDbEntity
  8
SOLDERMASK_PADS_TOP
100
AcDbCircle
 10
80.569485
 20
51.335609
 30
0.0
 40
0.75
  0
CIRCLE
  5
3BE
100
AcDbEntity
  8
SOLDERMASK_PADS_TOP
100
AcDbCircle
 10
83.109485
 20
13.235609
 30
0.0
 40
0.75
  0
CIRCLE
  5
3BF
100
AcDbEntity
  8
SOLDERMASK_PADS_TOP
100
AcDbCircle
 10
80.569485
 20
13.235609
 30
0.0
 40
0.75
  0
CIRCLE
  5
3C0
100
AcDbEntity
  8
SOLDERMASK_PADS_TOP
100
AcDbCircle
 10
83.109485
 20
43.715609
 30
0.0
 40
0.75
  0
CIRCLE
  5
3C1
100
AcDbEntity
  8
SOLDERMASK_PADS_TOP
100
AcDbCircle
 10
80.569485
 20
38.635609
 30
0.0
 40
0.75
  0
CIRCLE
  5
3C2
100
AcDbEntity
  8
SOLDERMASK_PADS_TOP
100
AcDbCircle
 10
83.109485
 20
51.335609
 30
0.0
 40
0.75
  0
CIRCLE
  5
3C3
100
AcDbEntity
  8
SOLDERMASK_PADS_TOP
100
AcDbCircle
 10
80.569485
 20
48.795609
 30
0.0
 40
0.75
  0
CIRCLE
  5
3C4
100
AcDbEntity
  8
SOLDERMASK_PADS_TOP
100
AcDbCircle
 10
83.109485
 20
48.795609
 30
0.0
 40
0.75
  0
CIRCLE
  5
3C5
100
AcDbEntity
  8
SOLDERMASK_PADS_TOP
100
AcDbCircle
 10
80.569485
 20
46.255609
 30
0.0
 40
0.75
  0
CIRCLE
  5
3C6
100
AcDbEntity
  8
SOLDERMASK_PADS_TOP
100
AcDbCircle
 10
83.109485
 20
46.255609
 30
0.0
 40
0.75
  0
CIRCLE
  5
3C7
100
AcDbEntity
  8
SOLDERMASK_PADS_TOP
100
AcDbCircle
 10
80.569485
 20
43.715609
 30
0.0
 40
0.75
  0
CIRCLE
  5
3C8
100
AcDbEntity
  8
SOLDERMASK_PADS_TOP
100
AcDbCircle
 10
80.569485
 20
41.175609
 30
0.0
 40
0.75
  0
CIRCLE
  5
3C9
100
AcDbEntity
  8
SOLDERMASK_PADS_TOP
100
AcDbCircle
 10
83.109485
 20
41.175609
 30
0.0
 40
0.75
  0
CIRCLE
  5
3CA
100
AcDbEntity
  8
SOLDERMASK_PADS_TOP
100
AcDbCircle
 10
80.569485
 20
20.855609
 30
0.0
 40
0.75
  0
CIRCLE
  5
3CB
100
AcDbEntity
  8
SOLDERMASK_PADS_TOP
100
AcDbCircle
 10
80.569485
 20
18.315609
 30
0.0
 40
0.75
  0
CIRCLE
  5
3CC
100
AcDbEntity
  8
SOLDERMASK_PADS_TOP
100
AcDbCircle
 10
80.569485
 20
8.155609
 30
0.0
 40
0.75
  0
CIRCLE
  5
3CD
100
AcDbEntity
  8
SOLDERMASK_PADS_TOP
100
AcDbCircle
 10
83.109485
 20
18.315609
 30
0.0
 40
0.75
  0
CIRCLE
  5
3CE
100
AcDbEntity
  8
SOLDERMASK_PADS_TOP
100
AcDbCircle
 10
80.569485
 20
28.475609
 30
0.0
 40
0.75
  0
CIRCLE
  5
3CF
100
AcDbEntity
  8
SOLDERMASK_PADS_TOP
100
AcDbCircle
 10
83.109485
 20
28.475609
 30
0.0
 40
0.75
  0
CIRCLE
  5
3D0
100
AcDbEntity
  8
SOLDERMASK_PADS_TOP
100
AcDbCircle
 10
80.569485
 20
25.935609
 30
0.0
 40
0.75
  0
CIRCLE
  5
3D1
100
AcDbEntity
  8
SOLDERMASK_PADS_TOP
100
AcDbCircle
 10
83.109485
 20
25.935609
 30
0.0
 40
0.75
  0
CIRCLE
  5
3D2
100
AcDbEntity
  8
SOLDERMASK_PADS_TOP
100
AcDbCircle
 10
80.569485
 20
23.395609
 30
0.0
 40
0.75
  0
CIRCLE
  5
3D3
100
AcDbEntity
  8
SOLDERMASK_PADS_TOP
100
AcDbCircle
 10
83.109485
 20
8.155609
 30
0.0
 40
0.75
  0
CIRCLE
  5
3D4
100
AcDbEntity
  8
SOLDERMASK_PADS_TOP
100
AcDbCircle
 10
83.109485
 20
10.695609
 30
0.0
 40
0.75
  0
CIRCLE
  5
3D5
100
AcDbEntity
  8
SOLDERMASK_PADS_TOP
100
AcDbCircle
 10
80.569485
 20
10.695609
 30
0.0
 40
0.75
  0
CIRCLE
  5
3D6
100
AcDbEntity
  8
SOLDERMASK_PADS_TOP
100
AcDbCircle
 10
83.109485
 20
15.775609
 30
0.0
 40
0.75
  0
LWPOLYLINE
  5
3D7
100
AcDbEntity
  8
SOLDERMASK_PADS_TOP
100
AcDbPolyline
 90
        4
 70
         1
 10
109.282701
 20
57.370265
 42
-1.0
 10
109.282701
 20
57.070265
 10
108.032701
 20
57.070265
 42
-1.0
 10
108.032701
 20
57.370265
  0
LWPOLYLINE
  5
3D8
100
AcDbEntity
  8
SOLDERMASK_PADS_TOP
100
AcDbPolyline
 90
        4
 70
         1
 10
109.282701
 20
56.870265
 42
-1.0
 10
109.282701
 20
56.570265
 10
108.032701
 20
56.570265
 42
-1.0
 10
108.032701
 20
56.870265
  0
LWPOLYLINE
  5
3D9
100
AcDbEntity
  8
SOLDERMASK_PADS_TOP
100
AcDbPolyline
 90
        4
 70
         1
 10
109.282701
 20
56.370265
 42
-1.0
 10
109.282701
 20
56.070265
 10
108.032701
 20
56.070265
 42
-1.0
 10
108.032701
 20
56.370265
  0
LWPOLYLINE
  5
3DA
100
AcDbEntity
  8
SOLDERMASK_PADS_TOP
100
AcDbPolyline
 90
        4
 70
         1
 10
109.282701
 20
55.870265
 42
-1.0
 10
109.282701
 20
55.570265
 10
108.032701
 20
55.570265
 42
-1.0
 10
108.032701
 20
55.870265
  0
LWPOLYLINE
  5
3DB
100
AcDbEntity
  8
SOLDERMASK_PADS_TOP
100
AcDbPolyline
 90
        4
 70
         1
 10
109.282701
 20
55.370265
 42
-1.0
 10
109.282701
 20
55.070265
 10
108.032701
 20
55.070265
 42
-1.0
 10
108.032701
 20
55.370265
  0
LWPOLYLINE
  5
3DC
100
AcDbEntity
  8
SOLDERMASK_PADS_TOP
100
AcDbPolyline
 90
        4
 70
         1
 10
109.282701
 20
54.870265
 42
-1.0
 10
109.282701
 20
54.570265
 10
108.032701
 20
54.570265
 42
-1.0
 10
108.032701
 20
54.870265
  0
LWPOLYLINE
  5
3DD
100
AcDbEntity
  8
SOLDERMASK_PADS_TOP
100
AcDbPolyline
 90
        4
 70
         1
 10
109.282701
 20
54.370265
 42
-1.0
 10
109.282701
 20
54.070265
 10
108.032701
 20
54.070265
 42
-1.0
 10
108.032701
 20
54.370265
  0
LWPOLYLINE
  5
3DE
100
AcDbEntity
  8
SOLDERMASK_PADS_TOP
100
AcDbPolyline
 90
        4
 70
         1
 10
109.282701
 20
53.870265
 42
-1.0
 10
109.282701
 20
53.570265
 10
108.032701
 20
53.570265
 42
-1.0
 10
108.032701
 20
53.870265
  0
LWPOLYLINE
  5
3DF
100
AcDbEntity
  8
SOLDERMASK_PADS_TOP
100
AcDbPolyline
 90
        4
 70
         1
 10
109.282701
 20
53.370265
 42
-1.0
 10
109.282701
 20
53.070265
 10
108.032701
 20
53.070265
 42
-1.0
 10
108.032701
 20
53.370265
  0
LWPOLYLINE
  5
3E0
100
AcDbEntity
  8
SOLDERMASK_PADS_TOP
100
AcDbPolyline
 90
        4
 70
         1
 10
109.282701
 20
52.870265
 42
-1.0
 10
109.282701
 20
52.570265
 10
108.032701
 20
52.570265
 42
-1.0
 10
108.032701
 20
52.870265
  0
LWPOLYLINE
  5
3E1
100
AcDbEntity
  8
SOLDERMASK_PADS_TOP
100
AcDbPolyline
 90
        4
 70
         1
 10
109.282701
 20
52.370265
 42
-1.0
 10
109.282701
 20
52.070265
 10
108.032701
 20
52.070265
 42
-1.0
 10
108.032701
 20
52.370265
  0
LWPOLYLINE
  5
3E2
100
AcDbEntity
  8
SOLDERMASK_PADS_TOP
100
AcDbPolyline
 90
        4
 70
         1
 10
109.282701
 20
51.870265
 42
-1.0
 10
109.282701
 20
51.570265
 10
108.032701
 20
51.570265
 42
-1.0
 10
108.032701
 20
51.870265
  0
LWPOLYLINE
  5
3E3
100
AcDbEntity
  8
SOLDERMASK_PADS_TOP
100
AcDbPolyline
 90
        4
 70
         1
 10
109.282701
 20
51.370265
 42
-1.0
 10
109.282701
 20
51.070265
 10
108.032701
 20
51.070265
 42
-1.0
 10
108.032701
 20
51.370265
  0
LWPOLYLINE
  5
3E4
100
AcDbEntity
  8
SOLDERMASK_PADS_TOP
100
AcDbPolyline
 90
        4
 70
         1
 10
109.282701
 20
50.870265
 42
-1.0
 10
109.282701
 20
50.570265
 10
108.032701
 20
50.570265
 42
-1.0
 10
108.032701
 20
50.870265
  0
LWPOLYLINE
  5
3E5
100
AcDbEntity
  8
SOLDERMASK_PADS_TOP
100
AcDbPolyline
 90
        4
 70
         1
 10
109.282701
 20
50.370265
 42
-1.0
 10
109.282701
 20
50.070265
 10
108.032701
 20
50.070265
 42
-1.0
 10
108.032701
 20
50.370265
  0
LWPOLYLINE
  5
3E6
100
AcDbEntity
  8
SOLDERMASK_PADS_TOP
100
AcDbPolyline
 90
        4
 70
         1
 10
109.282701
 20
49.370265
 42
-1.0
 10
109.282701
 20
49.070265
 10
108.032701
 20
49.070265
 42
-1.0
 10
108.032701
 20
49.370265
  0
LWPOLYLINE
  5
3E7
100
AcDbEntity
  8
SOLDERMASK_PADS_TOP
100
AcDbPolyline
 90
        4
 70
         1
 10
109.282701
 20
48.870265
 42
-1.0
 10
109.282701
 20
48.570265
 10
108.032701
 20
48.570265
 42
-1.0
 10
108.032701
 20
48.870265
  0
LWPOLYLINE
  5
3E8
100
AcDbEntity
  8
SOLDERMASK_PADS_TOP
100
AcDbPolyline
 90
        4
 70
         1
 10
109.282701
 20
48.370265
 42
-1.0
 10
109.282701
 20
48.070265
 10
108.032701
 20
48.070265
 42
-1.0
 10
108.032701
 20
48.370265
  0
LWPOLYLINE
  5
3E9
100
AcDbEntity
  8
SOLDERMASK_PADS_TOP
100
AcDbPolyline
 90
        4
 70
         1
 10
109.282701
 20
47.870265
 42
-1.0
 10
109.282701
 20
47.570265
 10
108.032701
 20
47.570265
 42
-1.0
 10
108.032701
 20
47.870265
  0
LWPOLYLINE
  5
3EA
100
AcDbEntity
  8
SOLDERMASK_PADS_TOP
100
AcDbPolyline
 90
        4
 70
         1
 10
109.282701
 20
47.370265
 42
-1.0
 10
109.282701
 20
47.070265
 10
108.032701
 20
47.070265
 42
-1.0
 10
108.032701
 20
47.370265
  0
LWPOLYLINE
  5
3EB
100
AcDbEntity
  8
SOLDERMASK_PADS_TOP
100
AcDbPolyline
 90
        4
 70
         1
 10
109.282701
 20
46.870265
 42
-1.0
 10
109.282701
 20
46.570265
 10
108.032701
 20
46.570265
 42
-1.0
 10
108.032701
 20
46.870265
  0
LWPOLYLINE
  5
3EC
100
AcDbEntity
  8
SOLDERMASK_PADS_TOP
100
AcDbPolyline
 90
        4
 70
         1
 10
109.282701
 20
46.370265
 42
-1.0
 10
109.282701
 20
46.070265
 10
108.032701
 20
46.070265
 42
-1.0
 10
108.032701
 20
46.370265
  0
LWPOLYLINE
  5
3ED
100
AcDbEntity
  8
SOLDERMASK_PADS_TOP
100
AcDbPolyline
 90
        4
 70
         1
 10
109.282701
 20
45.870265
 42
-1.0
 10
109.282701
 20
45.570265
 10
108.032701
 20
45.570265
 42
-1.0
 10
108.032701
 20
45.870265
  0
LWPOLYLINE
  5
3EE
100
AcDbEntity
  8
SOLDERMASK_PADS_TOP
100
AcDbPolyline
 90
        4
 70
         1
 10
109.282701
 20
45.370265
 42
-1.0
 10
109.282701
 20
45.070265
 10
108.032701
 20
45.070265
 42
-1.0
 10
108.032701
 20
45.370265
  0
LWPOLYLINE
  5
3EF
100
AcDbEntity
  8
SOLDERMASK_PADS_TOP
100
AcDbPolyline
 90
        4
 70
         1
 10
109.282701
 20
44.870265
 42
-1.0
 10
109.282701
 20
44.570265
 10
108.032701
 20
44.570265
 42
-1.0
 10
108.032701
 20
44.870265
  0
LWPOLYLINE
  5
3F0
100
AcDbEntity
  8
SOLDERMASK_PADS_TOP
100
AcDbPolyline
 90
        4
 70
         1
 10
109.282701
 20
44.370265
 42
-1.0
 10
109.282701
 20
44.070265
 10
108.032701
 20
44.070265
 42
-1.0
 10
108.032701
 20
44.370265
  0
LWPOLYLINE
  5
3F1
100
AcDbEntity
  8
SOLDERMASK_PADS_TOP
100
AcDbPolyline
 90
        4
 70
         1
 10
109.282701
 20
43.870265
 42
-1.0
 10
109.282701
 20
43.570265
 10
108.032701
 20
43.570265
 42
-1.0
 10
108.032701
 20
43.870265
  0
LWPOLYLINE
  5
3F2
100
AcDbEntity
  8
SOLDERMASK_PADS_TOP
100
AcDbPolyline
 90
        4
 70
         1
 10
109.282701
 20
43.370265
 42
-1.0
 10
109.282701
 20
43.070265
 10
108.032701
 20
43.070265
 42
-1.0
 10
108.032701
 20
43.370265
  0
LWPOLYLINE
  5
3F3
100
AcDbEntity
  8
SOLDERMASK_PADS_TOP
100
AcDbPolyline
 90
        4
 70
         1
 10
109.282701
 20
42.870265
 42
-1.0
 10
109.282701
 20
42.570265
 10
108.032701
 20
42.570265
 42
-1.0
 10
108.032701
 20
42.870265
  0
LWPOLYLINE
  5
3F4
100
AcDbEntity
  8
SOLDERMASK_PADS_TOP
100
AcDbPolyline
 90
        4
 70
         1
 10
109.282701
 20
42.370265
 42
-1.0
 10
109.282701
 20
42.070265
 10
108.032701
 20
42.070265
 42
-1.0
 10
108.032701
 20
42.370265
  0
LWPOLYLINE
  5
3F5
100
AcDbEntity
  8
SOLDERMASK_PADS_TOP
100
AcDbPolyline
 90
        4
 70
         1
 10
109.282701
 20
41.870265
 42
-1.0
 10
109.282701
 20
41.570265
 10
108.032701
 20
41.570265
 42
-1.0
 10
108.032701
 20
41.870265
  0
LWPOLYLINE
  5
3F6
100
AcDbEntity
  8
SOLDERMASK_PADS_TOP
100
AcDbPolyline
 90
        4
 70
         1
 10
109.282701
 20
41.370265
 42
-1.0
 10
109.282701
 20
41.070265
 10
108.032701
 20
41.070265
 42
-1.0
 10
108.032701
 20
41.370265
  0
LWPOLYLINE
  5
3F7
100
AcDbEntity
  8
SOLDERMASK_PADS_TOP
100
AcDbPolyline
 90
        4
 70
         1
 10
109.282701
 20
40.870265
 42
-1.0
 10
109.282701
 20
40.570265
 10
108.032701
 20
40.570265
 42
-1.0
 10
108.032701
 20
40.870265
  0
LWPOLYLINE
  5
3F8
100
AcDbEntity
  8
SOLDERMASK_PADS_TOP
100
AcDbPolyline
 90
        4
 70
         1
 10
109.282701
 20
40.370265
 42
-1.0
 10
109.282701
 20
40.070265
 10
108.032701
 20
40.070265
 42
-1.0
 10
108.032701
 20
40.370265
  0
LWPOLYLINE
  5
3F9
100
AcDbEntity
  8
SOLDERMASK_PADS_TOP
100
AcDbPolyline
 90
        4
 70
         1
 10
109.282701
 20
39.870265
 42
-1.0
 10
109.282701
 20
39.570265
 10
108.032701
 20
39.570265
 42
-1.0
 10
108.032701
 20
39.870265
  0
LWPOLYLINE
  5
3FA
100
AcDbEntity
  8
SOLDERMASK_PADS_TOP
100
AcDbPolyline
 90
        4
 70
         1
 10
110.457701
 20
38.395265
 42
-1.0
 10
110.757701
 20
38.395265
 10
110.757701
 20
37.145265
 42
-1.0
 10
110.457701
 20
37.145265
  0
LWPOLYLINE
  5
3FB
100
AcDbEntity
  8
SOLDERMASK_PADS_TOP
100
AcDbPolyline
 90
        4
 70
         1
 10
110.957701
 20
38.395265
 42
-1.0
 10
111.257701
 20
38.395265
 10
111.257701
 20
37.145265
 42
-1.0
 10
110.957701
 20
37.145265
  0
LWPOLYLINE
  5
3FC
100
AcDbEntity
  8
SOLDERMASK_PADS_TOP
100
AcDbPolyline
 90
        4
 70
         1
 10
111.457701
 20
38.395265
 42
-1.0
 10
111.757701
 20
38.395265
 10
111.757701
 20
37.145265
 42
-1.0
 10
111.457701
 20
37.145265
  0
LWPOLYLINE
  5
3FD
100
AcDbEntity
  8
SOLDERMASK_PADS_TOP
100
AcDbPolyline
 90
        4
 70
         1
 10
111.957701
 20
38.395265
 42
-1.0
 10
112.257701
 20
38.395265
 10
112.257701
 20
37.145265
 42
-1.0
 10
111.957701
 20
37.145265
  0
LWPOLYLINE
  5
3FE
100
AcDbEntity
  8
SOLDERMASK_PADS_TOP
100
AcDbPolyline
 90
        4
 70
         1
 10
112.457701
 20
38.395265
 42
-1.0
 10
112.757701
 20
38.395265
 10
112.757701
 20
37.145265
 42
-1.0
 10
112.457701
 20
37.145265
  0
LWPOLYLINE
  5
3FF
100
AcDbEntity
  8
SOLDERMASK_PADS_TOP
100
AcDbPolyline
 90
        4
 70
         1
 10
112.957701
 20
38.395265
 42
-1.0
 10
113.257701
 20
38.395265
 10
113.257701
 20
37.145265
 42
-1.0
 10
112.957701
 20
37.145265
  0
LWPOLYLINE
  5
400
100
AcDbEntity
  8
SOLDERMASK_PADS_TOP
100
AcDbPolyline
 90
        4
 70
         1
 10
113.457701
 20
38.395265
 42
-1.0
 10
113.757701
 20
38.395265
 10
113.757701
 20
37.145265
 42
-1.0
 10
113.457701
 20
37.145265
  0
LWPOLYLINE
  5
401
100
AcDbEntity
  8
SOLDERMASK_PADS_TOP
100
AcDbPolyline
 90
        4
 70
         1
 10
113.957701
 20
38.395265
 42
-1.0
 10
114.257701
 20
38.395265
 10
114.257701
 20
37.145265
 42
-1.0
 10
113.957701
 20
37.145265
  0
LWPOLYLINE
  5
402
100
AcDbEntity
  8
SOLDERMASK_PADS_TOP
100
AcDbPolyline
 90
        4
 70
         1
 10
114.457701
 20
38.395265
 42
-1.0
 10
114.757701
 20
38.395265
 10
114.757701
 20
37.145265
 42
-1.0
 10
114.457701
 20
37.145265
  0
LWPOLYLINE
  5
403
100
AcDbEntity
  8
SOLDERMASK_PADS_TOP
100
AcDbPolyline
 90
        4
 70
         1
 10
114.957701
 20
38.395265
 42
-1.0
 10
115.257701
 20
38.395265
 10
115.257701
 20
37.145265
 42
-1.0
 10
114.957701
 20
37.145265
  0
LWPOLYLINE
  5
404
100
AcDbEntity
  8
SOLDERMASK_PADS_TOP
100
AcDbPolyline
 90
        4
 70
         1
 10
115.457701
 20
38.395265
 42
-1.0
 10
115.757701
 20
38.395265
 10
115.757701
 20
37.145265
 42
-1.0
 10
115.457701
 20
37.145265
  0
LWPOLYLINE
  5
405
100
AcDbEntity
  8
SOLDERMASK_PADS_TOP
100
AcDbPolyline
 90
        4
 70
         1
 10
115.957701
 20
38.395265
 42
-1.0
 10
116.257701
 20
38.395265
 10
116.257701
 20
37.145265
 42
-1.0
 10
115.957701
 20
37.145265
  0
LWPOLYLINE
  5
406
100
AcDbEntity
  8
SOLDERMASK_PADS_TOP
100
AcDbPolyline
 90
        4
 70
         1
 10
116.457701
 20
38.395265
 42
-1.0
 10
116.757701
 20
38.395265
 10
116.757701
 20
37.145265
 42
-1.0
 10
116.457701
 20
37.145265
  0
LWPOLYLINE
  5
407
100
AcDbEntity
  8
SOLDERMASK_PADS_TOP
100
AcDbPolyline
 90
        4
 70
         1
 10
116.957701
 20
38.395265
 42
-1.0
 10
117.257701
 20
38.395265
 10
117.257701
 20
37.145265
 42
-1.0
 10
116.957701
 20
37.145265
  0
LWPOLYLINE
  5
408
100
AcDbEntity
  8
SOLDERMASK_PADS_TOP
100
AcDbPolyline
 90
        4
 70
         1
 10
117.457701
 20
38.395265
 42
-1.0
 10
117.757701
 20
38.395265
 10
117.757701
 20
37.145265
 42
-1.0
 10
117.457701
 20
37.145265
  0
LWPOLYLINE
  5
409
100
AcDbEntity
  8
SOLDERMASK_PADS_TOP
100
AcDbPolyline
 90
        4
 70
         1
 10
117.957701
 20
38.395265
 42
-1.0
 10
118.257701
 20
38.395265
 10
118.257701
 20
37.145265
 42
-1.0
 10
117.957701
 20
37.145265
  0
LWPOLYLINE
  5
40A
100
AcDbEntity
  8
SOLDERMASK_PADS_TOP
100
AcDbPolyline
 90
        4
 70
         1
 10
118.457701
 20
38.395265
 42
-1.0
 10
118.757701
 20
38.395265
 10
118.757701
 20
37.145265
 42
-1.0
 10
118.457701
 20
37.145265
  0
LWPOLYLINE
  5
40B
100
AcDbEntity
  8
SOLDERMASK_PADS_TOP
100
AcDbPolyline
 90
        4
 70
         1
 10
118.957701
 20
38.395265
 42
-1.0
 10
119.257701
 20
38.395265
 10
119.257701
 20
37.145265
 42
-1.0
 10
118.957701
 20
37.145265
  0
LWPOLYLINE
  5
40C
100
AcDbEntity
  8
SOLDERMASK_PADS_TOP
100
AcDbPolyline
 90
        4
 70
         1
 10
119.457701
 20
38.395265
 42
-1.0
 10
119.757701
 20
38.395265
 10
119.757701
 20
37.145265
 42
-1.0
 10
119.457701
 20
37.145265
  0
LWPOLYLINE
  5
40D
100
AcDbEntity
  8
SOLDERMASK_PADS_TOP
100
AcDbPolyline
 90
        4
 70
         1
 10
119.957701
 20
38.395265
 42
-1.0
 10
120.257701
 20
38.395265
 10
120.257701
 20
37.145265
 42
-1.0
 10
119.957701
 20
37.145265
  0
LWPOLYLINE
  5
40E
100
AcDbEntity
  8
SOLDERMASK_PADS_TOP
100
AcDbPolyline
 90
        4
 70
         1
 10
120.457701
 20
38.395265
 42
-1.0
 10
120.757701
 20
38.395265
 10
120.757701
 20
37.145265
 42
-1.0
 10
120.457701
 20
37.145265
  0
LWPOLYLINE
  5
40F
100
AcDbEntity
  8
SOLDERMASK_PADS_TOP
100
AcDbPolyline
 90
        4
 70
         1
 10
120.957701
 20
38.395265
 42
-1.0
 10
121.257701
 20
38.395265
 10
121.257701
 20
37.145265
 42
-1.0
 10
120.957701
 20
37.145265
  0
LWPOLYLINE
  5
410
100
AcDbEntity
  8
SOLDERMASK_PADS_TOP
100
AcDbPolyline
 90
        4
 70
         1
 10
121.457701
 20
38.395265
 42
-1.0
 10
121.757701
 20
38.395265
 10
121.757701
 20
37.145265
 42
-1.0
 10
121.457701
 20
37.145265
  0
LWPOLYLINE
  5
411
100
AcDbEntity
  8
SOLDERMASK_PADS_TOP
100
AcDbPolyline
 90
        4
 70
         1
 10
121.957701
 20
38.395265
 42
-1.0
 10
122.257701
 20
38.395265
 10
122.257701
 20
37.145265
 42
-1.0
 10
121.957701
 20
37.145265
  0
LWPOLYLINE
  5
412
100
AcDbEntity
  8
SOLDERMASK_PADS_TOP
100
AcDbPolyline
 90
        4
 70
         1
 10
122.457701
 20
38.395265
 42
-1.0
 10
122.757701
 20
38.395265
 10
122.757701
 20
37.145265
 42
-1.0
 10
122.457701
 20
37.145265
  0
LWPOLYLINE
  5
413
100
AcDbEntity
  8
SOLDERMASK_PADS_TOP
100
AcDbPolyline
 90
        4
 70
         1
 10
122.957701
 20
38.395265
 42
-1.0
 10
123.257701
 20
38.395265
 10
123.257701
 20
37.145265
 42
-1.0
 10
122.957701
 20
37.145265
  0
LWPOLYLINE
  5
414
100
AcDbEntity
  8
SOLDERMASK_PADS_TOP
100
AcDbPolyline
 90
        4
 70
         1
 10
123.457701
 20
38.395265
 42
-1.0
 10
123.757701
 20
38.395265
 10
123.757701
 20
37.145265
 42
-1.0
 10
123.457701
 20
37.145265
  0
LWPOLYLINE
  5
415
100
AcDbEntity
  8
SOLDERMASK_PADS_TOP
100
AcDbPolyline
 90
        4
 70
         1
 10
123.957701
 20
38.395265
 42
-1.0
 10
124.257701
 20
38.395265
 10
124.257701
 20
37.145265
 42
-1.0
 10
123.957701
 20
37.145265
  0
LWPOLYLINE
  5
416
100
AcDbEntity
  8
SOLDERMASK_PADS_TOP
100
AcDbPolyline
 90
        4
 70
         1
 10
124.457701
 20
38.395265
 42
-1.0
 10
124.757701
 20
38.395265
 10
124.757701
 20
37.145265
 42
-1.0
 10
124.457701
 20
37.145265
  0
LWPOLYLINE
  5
417
100
AcDbEntity
  8
SOLDERMASK_PADS_TOP
100
AcDbPolyline
 90
        4
 70
         1
 10
124.957701
 20
38.395265
 42
-1.0
 10
125.257701
 20
38.395265
 10
125.257701
 20
37.145265
 42
-1.0
 10
124.957701
 20
37.145265
  0
LWPOLYLINE
  5
418
100
AcDbEntity
  8
SOLDERMASK_PADS_TOP
100
AcDbPolyline
 90
        4
 70
         1
 10
125.457701
 20
38.395265
 42
-1.0
 10
125.757701
 20
38.395265
 10
125.757701
 20
37.145265
 42
-1.0
 10
125.457701
 20
37.145265
  0
LWPOLYLINE
  5
419
100
AcDbEntity
  8
SOLDERMASK_PADS_TOP
100
AcDbPolyline
 90
        4
 70
         1
 10
125.957701
 20
38.395265
 42
-1.0
 10
126.257701
 20
38.395265
 10
126.257701
 20
37.145265
 42
-1.0
 10
125.957701
 20
37.145265
  0
LWPOLYLINE
  5
41A
100
AcDbEntity
  8
SOLDERMASK_PADS_TOP
100
AcDbPolyline
 90
        4
 70
         1
 10
126.457701
 20
38.395265
 42
-1.0
 10
126.757701
 20
38.395265
 10
126.757701
 20
37.145265
 42
-1.0
 10
126.457701
 20
37.145265
  0
LWPOLYLINE
  5
41B
100
AcDbEntity
  8
SOLDERMASK_PADS_TOP
100
AcDbPolyline
 90
        4
 70
         1
 10
126.957701
 20
38.395265
 42
-1.0
 10
127.257701
 20
38.395265
 10
127.257701
 20
37.145265
 42
-1.0
 10
126.957701
 20
37.145265
  0
LWPOLYLINE
  5
41C
100
AcDbEntity
  8
SOLDERMASK_PADS_TOP
100
AcDbPolyline
 90
        4
 70
         1
 10
127.457701
 20
38.395265
 42
-1.0
 10
127.757701
 20
38.395265
 10
127.757701
 20
37.145265
 42
-1.0
 10
127.457701
 20
37.145265
  0
LWPOLYLINE
  5
41D
100
AcDbEntity
  8
SOLDERMASK_PADS_TOP
100
AcDbPolyline
 90
        4
 70
         1
 10
127.957701
 20
38.395265
 42
-1.0
 10
128.257701
 20
38.395265
 10
128.257701
 20
37.145265
 42
-1.0
 10
127.957701
 20
37.145265
  0
LWPOLYLINE
  5
41E
100
AcDbEntity
  8
SOLDERMASK_PADS_TOP
100
AcDbPolyline
 90
        4
 70
         1
 10
130.682701
 20
39.870265
 42
-1.0
 10
130.682701
 20
39.570265
 10
129.432701
 20
39.570265
 42
-1.0
 10
129.432701
 20
39.870265
  0
LWPOLYLINE
  5
41F
100
AcDbEntity
  8
SOLDERMASK_PADS_TOP
100
AcDbPolyline
 90
        4
 70
         1
 10
130.682701
 20
40.370265
 42
-1.0
 10
130.682701
 20
40.070265
 10
129.432701
 20
40.070265
 42
-1.0
 10
129.432701
 20
40.370265
  0
LWPOLYLINE
  5
420
100
AcDbEntity
  8
SOLDERMASK_PADS_TOP
100
AcDbPolyline
 90
        4
 70
         1
 10
130.682701
 20
40.870265
 42
-1.0
 10
130.682701
 20
40.570265
 10
129.432701
 20
40.570265
 42
-1.0
 10
129.432701
 20
40.870265
  0
LWPOLYLINE
  5
421
100
AcDbEntity
  8
SOLDERMASK_PADS_TOP
100
AcDbPolyline
 90
        4
 70
         1
 10
130.682701
 20
41.370265
 42
-1.0
 10
130.682701
 20
41.070265
 10
129.432701
 20
41.070265
 42
-1.0
 10
129.432701
 20
41.370265
  0
LWPOLYLINE
  5
422
100
AcDbEntity
  8
SOLDERMASK_PADS_TOP
100
AcDbPolyline
 90
        4
 70
         1
 10
130.682701
 20
41.870265
 42
-1.0
 10
130.682701
 20
41.570265
 10
129.432701
 20
41.570265
 42
-1.0
 10
129.432701
 20
41.870265
  0
LWPOLYLINE
  5
423
100
AcDbEntity
  8
SOLDERMASK_PADS_TOP
100
AcDbPolyline
 90
        4
 70
         1
 10
130.682701
 20
42.370265
 42
-1.0
 10
130.682701
 20
42.070265
 10
129.432701
 20
42.070265
 42
-1.0
 10
129.432701
 20
42.370265
  0
LWPOLYLINE
  5
424
100
AcDbEntity
  8
SOLDERMASK_PADS_TOP
100
AcDbPolyline
 90
        4
 70
         1
 10
130.682701
 20
42.870265
 42
-1.0
 10
130.682701
 20
42.570265
 10
129.432701
 20
42.570265
 42
-1.0
 10
129.432701
 20
42.870265
  0
LWPOLYLINE
  5
425
100
AcDbEntity
  8
SOLDERMASK_PADS_TOP
100
AcDbPolyline
 90
        4
 70
         1
 10
130.682701
 20
43.370265
 42
-1.0
 10
130.682701
 20
43.070265
 10
129.432701
 20
43.070265
 42
-1.0
 10
129.432701
 20
43.370265
  0
LWPOLYLINE
  5
426
100
AcDbEntity
  8
SOLDERMASK_PADS_TOP
100
AcDbPolyline
 90
        4
 70
         1
 10
130.682701
 20
43.870265
 42
-1.0
 10
130.682701
 20
43.570265
 10
129.432701
 20
43.570265
 42
-1.0
 10
129.432701
 20
43.870265
  0
LWPOLYLINE
  5
427
100
AcDbEntity
  8
SOLDERMASK_PADS_TOP
100
AcDbPolyline
 90
        4
 70
         1
 10
130.682701
 20
44.370265
 42
-1.0
 10
130.682701
 20
44.070265
 10
129.432701
 20
44.070265
 42
-1.0
 10
129.432701
 20
44.370265
  0
LWPOLYLINE
  5
428
100
AcDbEntity
  8
SOLDERMASK_PADS_TOP
100
AcDbPolyline
 90
        4
 70
         1
 10
130.682701
 20
44.870265
 42
-1.0
 10
130.682701
 20
44.570265
 10
129.432701
 20
44.570265
 42
-1.0
 10
129.432701
 20
44.870265
  0
LWPOLYLINE
  5
429
100
AcDbEntity
  8
SOLDERMASK_PADS_TOP
100
AcDbPolyline
 90
        4
 70
         1
 10
130.682701
 20
45.370265
 42
-1.0
 10
130.682701
 20
45.070265
 10
129.432701
 20
45.070265
 42
-1.0
 10
129.432701
 20
45.370265
  0
LWPOLYLINE
  5
42A
100
AcDbEntity
  8
SOLDERMASK_PADS_TOP
100
AcDbPolyline
 90
        4
 70
         1
 10
130.682701
 20
45.870265
 42
-1.0
 10
130.682701
 20
45.570265
 10
129.432701
 20
45.570265
 42
-1.0
 10
129.432701
 20
45.870265
  0
LWPOLYLINE
  5
42B
100
AcDbEntity
  8
SOLDERMASK_PADS_TOP
100
AcDbPolyline
 90
        4
 70
         1
 10
130.682701
 20
46.370265
 42
-1.0
 10
130.682701
 20
46.070265
 10
129.432701
 20
46.070265
 42
-1.0
 10
129.432701
 20
46.370265
  0
LWPOLYLINE
  5
42C
100
AcDbEntity
  8
SOLDERMASK_PADS_TOP
100
AcDbPolyline
 90
        4
 70
         1
 10
130.682701
 20
46.870265
 42
-1.0
 10
130.682701
 20
46.570265
 10
129.432701
 20
46.570265
 42
-1.0
 10
129.432701
 20
46.870265
  0
LWPOLYLINE
  5
42D
100
AcDbEntity
  8
SOLDERMASK_PADS_TOP
100
AcDbPolyline
 90
        4
 70
         1
 10
130.682701
 20
47.370265
 42
-1.0
 10
130.682701
 20
47.070265
 10
129.432701
 20
47.070265
 42
-1.0
 10
129.432701
 20
47.370265
  0
LWPOLYLINE
  5
42E
100
AcDbEntity
  8
SOLDERMASK_PADS_TOP
100
AcDbPolyline
 90
        4
 70
         1
 10
130.682701
 20
47.870265
 42
-1.0
 10
130.682701
 20
47.570265
 10
129.432701
 20
47.570265
 42
-1.0
 10
129.432701
 20
47.870265
  0
LWPOLYLINE
  5
42F
100
AcDbEntity
  8
SOLDERMASK_PADS_TOP
100
AcDbPolyline
 90
        4
 70
         1
 10
130.682701
 20
48.370265
 42
-1.0
 10
130.682701
 20
48.070265
 10
129.432701
 20
48.070265
 42
-1.0
 10
129.432701
 20
48.370265
  0
LWPOLYLINE
  5
430
100
AcDbEntity
  8
SOLDERMASK_PADS_TOP
100
AcDbPolyline
 90
        4
 70
         1
 10
130.682701
 20
48.870265
 42
-1.0
 10
130.682701
 20
48.570265
 10
129.432701
 20
48.570265
 42
-1.0
 10
129.432701
 20
48.870265
  0
LWPOLYLINE
  5
431
100
AcDbEntity
  8
SOLDERMASK_PADS_TOP
100
AcDbPolyline
 90
        4
 70
         1
 10
130.682701
 20
49.370265
 42
-1.0
 10
130.682701
 20
49.070265
 10
129.432701
 20
49.070265
 42
-1.0
 10
129.432701
 20
49.370265
  0
LWPOLYLINE
  5
432
100
AcDbEntity
  8
SOLDERMASK_PADS_TOP
100
AcDbPolyline
 90
        4
 70
         1
 10
130.682701
 20
49.870265
 42
-1.0
 10
130.682701
 20
49.570265
 10
129.432701
 20
49.570265
 42
-1.0
 10
129.432701
 20
49.870265
  0
LWPOLYLINE
  5
433
100
AcDbEntity
  8
SOLDERMASK_PADS_TOP
100
AcDbPolyline
 90
        4
 70
         1
 10
130.682701
 20
50.370265
 42
-1.0
 10
130.682701
 20
50.070265
 10
129.432701
 20
50.070265
 42
-1.0
 10
129.432701
 20
50.370265
  0
LWPOLYLINE
  5
434
100
AcDbEntity
  8
SOLDERMASK_PADS_TOP
100
AcDbPolyline
 90
        4
 70
         1
 10
130.682701
 20
50.870265
 42
-1.0
 10
130.682701
 20
50.570265
 10
129.432701
 20
50.570265
 42
-1.0
 10
129.432701
 20
50.870265
  0
LWPOLYLINE
  5
435
100
AcDbEntity
  8
SOLDERMASK_PADS_TOP
100
AcDbPolyline
 90
        4
 70
         1
 10
130.682701
 20
51.370265
 42
-1.0
 10
130.682701
 20
51.070265
 10
129.432701
 20
51.070265
 42
-1.0
 10
129.432701
 20
51.370265
  0
LWPOLYLINE
  5
436
100
AcDbEntity
  8
SOLDERMASK_PADS_TOP
100
AcDbPolyline
 90
        4
 70
         1
 10
130.682701
 20
51.870265
 42
-1.0
 10
130.682701
 20
51.570265
 10
129.432701
 20
51.570265
 42
-1.0
 10
129.432701
 20
51.870265
  0
LWPOLYLINE
  5
437
100
AcDbEntity
  8
SOLDERMASK_PADS_TOP
100
AcDbPolyline
 90
        4
 70
         1
 10
130.682701
 20
52.370265
 42
-1.0
 10
130.682701
 20
52.070265
 10
129.432701
 20
52.070265
 42
-1.0
 10
129.432701
 20
52.370265
  0
LWPOLYLINE
  5
438
100
AcDbEntity
  8
SOLDERMASK_PADS_TOP
100
AcDbPolyline
 90
        4
 70
         1
 10
130.682701
 20
52.870265
 42
-1.0
 10
130.682701
 20
52.570265
 10
129.432701
 20
52.570265
 42
-1.0
 10
129.432701
 20
52.870265
  0
LWPOLYLINE
  5
439
100
AcDbEntity
  8
SOLDERMASK_PADS_TOP
100
AcDbPolyline
 90
        4
 70
         1
 10
130.682701
 20
53.370265
 42
-1.0
 10
130.682701
 20
53.070265
 10
129.432701
 20
53.070265
 42
-1.0
 10
129.432701
 20
53.370265
  0
LWPOLYLINE
  5
43A
100
AcDbEntity
  8
SOLDERMASK_PADS_TOP
100
AcDbPolyline
 90
        4
 70
         1
 10
130.682701
 20
53.870265
 42
-1.0
 10
130.682701
 20
53.570265
 10
129.432701
 20
53.570265
 42
-1.0
 10
129.432701
 20
53.870265
  0
LWPOLYLINE
  5
43B
100
AcDbEntity
  8
SOLDERMASK_PADS_TOP
100
AcDbPolyline
 90
        4
 70
         1
 10
130.682701
 20
54.370265
 42
-1.0
 10
130.682701
 20
54.070265
 10
129.432701
 20
54.070265
 42
-1.0
 10
129.432701
 20
54.370265
  0
LWPOLYLINE
  5
43C
100
AcDbEntity
  8
SOLDERMASK_PADS_TOP
100
AcDbPolyline
 90
        4
 70
         1
 10
130.682701
 20
54.870265
 42
-1.0
 10
130.682701
 20
54.570265
 10
129.432701
 20
54.570265
 42
-1.0
 10
129.432701
 20
54.870265
  0
LWPOLYLINE
  5
43D
100
AcDbEntity
  8
SOLDERMASK_PADS_TOP
100
AcDbPolyline
 90
        4
 70
         1
 10
130.682701
 20
55.370265
 42
-1.0
 10
130.682701
 20
55.070265
 10
129.432701
 20
55.070265
 42
-1.0
 10
129.432701
 20
55.370265
  0
LWPOLYLINE
  5
43E
100
AcDbEntity
  8
SOLDERMASK_PADS_TOP
100
AcDbPolyline
 90
        4
 70
         1
 10
130.682701
 20
55.870265
 42
-1.0
 10
130.682701
 20
55.570265
 10
129.432701
 20
55.570265
 42
-1.0
 10
129.432701
 20
55.870265
  0
LWPOLYLINE
  5
43F
100
AcDbEntity
  8
SOLDERMASK_PADS_TOP
100
AcDbPolyline
 90
        4
 70
         1
 10
130.682701
 20
56.370265
 42
-1.0
 10
130.682701
 20
56.070265
 10
129.432701
 20
56.070265
 42
-1.0
 10
129.432701
 20
56.370265
  0
LWPOLYLINE
  5
440
100
AcDbEntity
  8
SOLDERMASK_PADS_TOP
100
AcDbPolyline
 90
        4
 70
         1
 10
130.682701
 20
56.870265
 42
-1.0
 10
130.682701
 20
56.570265
 10
129.432701
 20
56.570265
 42
-1.0
 10
129.432701
 20
56.870265
  0
LWPOLYLINE
  5
441
100
AcDbEntity
  8
SOLDERMASK_PADS_TOP
100
AcDbPolyline
 90
        4
 70
         1
 10
130.682701
 20
57.370265
 42
-1.0
 10
130.682701
 20
57.070265
 10
129.432701
 20
57.070265
 42
-1.0
 10
129.432701
 20
57.370265
  0
LWPOLYLINE
  5
442
100
AcDbEntity
  8
SOLDERMASK_PADS_TOP
100
AcDbPolyline
 90
        4
 70
         1
 10
127.957701
 20
59.795265
 42
-1.0
 10
128.257701
 20
59.795265
 10
128.257701
 20
58.545265
 42
-1.0
 10
127.957701
 20
58.545265
  0
LWPOLYLINE
  5
443
100
AcDbEntity
  8
SOLDERMASK_PADS_TOP
100
AcDbPolyline
 90
        4
 70
         1
 10
127.457701
 20
59.795265
 42
-1.0
 10
127.757701
 20
59.795265
 10
127.757701
 20
58.545265
 42
-1.0
 10
127.457701
 20
58.545265
  0
LWPOLYLINE
  5
444
100
AcDbEntity
  8
SOLDERMASK_PADS_TOP
100
AcDbPolyline
 90
        4
 70
         1
 10
126.957701
 20
59.795265
 42
-1.0
 10
127.257701
 20
59.795265
 10
127.257701
 20
58.545265
 42
-1.0
 10
126.957701
 20
58.545265
  0
LWPOLYLINE
  5
445
100
AcDbEntity
  8
SOLDERMASK_PADS_TOP
100
AcDbPolyline
 90
        4
 70
         1
 10
126.457701
 20
59.795265
 42
-1.0
 10
126.757701
 20
59.795265
 10
126.757701
 20
58.545265
 42
-1.0
 10
126.457701
 20
58.545265
  0
LWPOLYLINE
  5
446
100
AcDbEntity
  8
SOLDERMASK_PADS_TOP
100
AcDbPolyline
 90
        4
 70
         1
 10
125.957701
 20
59.795265
 42
-1.0
 10
126.257701
 20
59.795265
 10
126.257701
 20
58.545265
 42
-1.0
 10
125.957701
 20
58.545265
  0
LWPOLYLINE
  5
447
100
AcDbEntity
  8
SOLDERMASK_PADS_TOP
100
AcDbPolyline
 90
        4
 70
         1
 10
125.457701
 20
59.795265
 42
-1.0
 10
125.757701
 20
59.795265
 10
125.757701
 20
58.545265
 42
-1.0
 10
125.457701
 20
58.545265
  0
LWPOLYLINE
  5
448
100
AcDbEntity
  8
SOLDERMASK_PADS_TOP
100
AcDbPolyline
 90
        4
 70
         1
 10
124.957701
 20
59.795265
 42
-1.0
 10
125.257701
 20
59.795265
 10
125.257701
 20
58.545265
 42
-1.0
 10
124.957701
 20
58.545265
  0
LWPOLYLINE
  5
449
100
AcDbEntity
  8
SOLDERMASK_PADS_TOP
100
AcDbPolyline
 90
        4
 70
         1
 10
124.457701
 20
59.795265
 42
-1.0
 10
124.757701
 20
59.795265
 10
124.757701
 20
58.545265
 42
-1.0
 10
124.457701
 20
58.545265
  0
LWPOLYLINE
  5
44A
100
AcDbEntity
  8
SOLDERMASK_PADS_TOP
100
AcDbPolyline
 90
        4
 70
         1
 10
123.957701
 20
59.795265
 42
-1.0
 10
124.257701
 20
59.795265
 10
124.257701
 20
58.545265
 42
-1.0
 10
123.957701
 20
58.545265
  0
LWPOLYLINE
  5
44B
100
AcDbEntity
  8
SOLDERMASK_PADS_TOP
100
AcDbPolyline
 90
        4
 70
         1
 10
123.457701
 20
59.795265
 42
-1.0
 10
123.757701
 20
59.795265
 10
123.757701
 20
58.545265
 42
-1.0
 10
123.457701
 20
58.545265
  0
LWPOLYLINE
  5
44C
100
AcDbEntity
  8
SOLDERMASK_PADS_TOP
100
AcDbPolyline
 90
        4
 70
         1
 10
122.957701
 20
59.795265
 42
-1.0
 10
123.257701
 20
59.795265
 10
123.257701
 20
58.545265
 42
-1.0
 10
122.957701
 20
58.545265
  0
LWPOLYLINE
  5
44D
100
AcDbEntity
  8
SOLDERMASK_PADS_TOP
100
AcDbPolyline
 90
        4
 70
         1
 10
122.457701
 20
59.795265
 42
-1.0
 10
122.757701
 20
59.795265
 10
122.757701
 20
58.545265
 42
-1.0
 10
122.457701
 20
58.545265
  0
LWPOLYLINE
  5
44E
100
AcDbEntity
  8
SOLDERMASK_PADS_TOP
100
AcDbPolyline
 90
        4
 70
         1
 10
121.957701
 20
59.795265
 42
-1.0
 10
122.257701
 20
59.795265
 10
122.257701
 20
58.545265
 42
-1.0
 10
121.957701
 20
58.545265
  0
LWPOLYLINE
  5
44F
100
AcDbEntity
  8
SOLDERMASK_PADS_TOP
100
AcDbPolyline
 90
        4
 70
         1
 10
121.457701
 20
59.795265
 42
-1.0
 10
121.757701
 20
59.795265
 10
121.757701
 20
58.545265
 42
-1.0
 10
121.457701
 20
58.545265
  0
LWPOLYLINE
  5
450
100
AcDbEntity
  8
SOLDERMASK_PADS_TOP
100
AcDbPolyline
 90
        4
 70
         1
 10
120.957701
 20
59.795265
 42
-1.0
 10
121.257701
 20
59.795265
 10
121.257701
 20
58.545265
 42
-1.0
 10
120.957701
 20
58.545265
  0
LWPOLYLINE
  5
451
100
AcDbEntity
  8
SOLDERMASK_PADS_TOP
100
AcDbPolyline
 90
        4
 70
         1
 10
120.457701
 20
59.795265
 42
-1.0
 10
120.757701
 20
59.795265
 10
120.757701
 20
58.545265
 42
-1.0
 10
120.457701
 20
58.545265
  0
LWPOLYLINE
  5
452
100
AcDbEntity
  8
SOLDERMASK_PADS_TOP
100
AcDbPolyline
 90
        4
 70
         1
 10
119.957701
 20
59.795265
 42
-1.0
 10
120.257701
 20
59.795265
 10
120.257701
 20
58.545265
 42
-1.0
 10
119.957701
 20
58.545265
  0
LWPOLYLINE
  5
453
100
AcDbEntity
  8
SOLDERMASK_PADS_TOP
100
AcDbPolyline
 90
        4
 70
         1
 10
119.457701
 20
59.795265
 42
-1.0
 10
119.757701
 20
59.795265
 10
119.757701
 20
58.545265
 42
-1.0
 10
119.457701
 20
58.545265
  0
LWPOLYLINE
  5
454
100
AcDbEntity
  8
SOLDERMASK_PADS_TOP
100
AcDbPolyline
 90
        4
 70
         1
 10
118.957701
 20
59.795265
 42
-1.0
 10
119.257701
 20
59.795265
 10
119.257701
 20
58.545265
 42
-1.0
 10
118.957701
 20
58.545265
  0
LWPOLYLINE
  5
455
100
AcDbEntity
  8
SOLDERMASK_PADS_TOP
100
AcDbPolyline
 90
        4
 70
         1
 10
118.457701
 20
59.795265
 42
-1.0
 10
118.757701
 20
59.795265
 10
118.757701
 20
58.545265
 42
-1.0
 10
118.457701
 20
58.545265
  0
LWPOLYLINE
  5
456
100
AcDbEntity
  8
SOLDERMASK_PADS_TOP
100
AcDbPolyline
 90
        4
 70
         1
 10
117.957701
 20
59.795265
 42
-1.0
 10
118.257701
 20
59.795265
 10
118.257701
 20
58.545265
 42
-1.0
 10
117.957701
 20
58.545265
  0
LWPOLYLINE
  5
457
100
AcDbEntity
  8
SOLDERMASK_PADS_TOP
100
AcDbPolyline
 90
        4
 70
         1
 10
117.457701
 20
59.795265
 42
-1.0
 10
117.757701
 20
59.795265
 10
117.757701
 20
58.545265
 42
-1.0
 10
117.457701
 20
58.545265
  0
LWPOLYLINE
  5
458
100
AcDbEntity
  8
SOLDERMASK_PADS_TOP
100
AcDbPolyline
 90
        4
 70
         1
 10
116.957701
 20
59.795265
 42
-1.0
 10
117.257701
 20
59.795265
 10
117.257701
 20
58.545265
 42
-1.0
 10
116.957701
 20
58.545265
  0
LWPOLYLINE
  5
459
100
AcDbEntity
  8
SOLDERMASK_PADS_TOP
100
AcDbPolyline
 90
        4
 70
         1
 10
116.457701
 20
59.795265
 42
-1.0
 10
116.757701
 20
59.795265
 10
116.757701
 20
58.545265
 42
-1.0
 10
116.457701
 20
58.545265
  0
LWPOLYLINE
  5
45A
100
AcDbEntity
  8
SOLDERMASK_PADS_TOP
100
AcDbPolyline
 90
        4
 70
         1
 10
115.957701
 20
59.795265
 42
-1.0
 10
116.257701
 20
59.795265
 10
116.257701
 20
58.545265
 42
-1.0
 10
115.957701
 20
58.545265
  0
LWPOLYLINE
  5
45B
100
AcDbEntity
  8
SOLDERMASK_PADS_TOP
100
AcDbPolyline
 90
        4
 70
         1
 10
115.457701
 20
59.795265
 42
-1.0
 10
115.757701
 20
59.795265
 10
115.757701
 20
58.545265
 42
-1.0
 10
115.457701
 20
58.545265
  0
LWPOLYLINE
  5
45C
100
AcDbEntity
  8
SOLDERMASK_PADS_TOP
100
AcDbPolyline
 90
        4
 70
         1
 10
114.957701
 20
59.795265
 42
-1.0
 10
115.257701
 20
59.795265
 10
115.257701
 20
58.545265
 42
-1.0
 10
114.957701
 20
58.545265
  0
LWPOLYLINE
  5
45D
100
AcDbEntity
  8
SOLDERMASK_PADS_TOP
100
AcDbPolyline
 90
        4
 70
         1
 10
114.457701
 20
59.795265
 42
-1.0
 10
114.757701
 20
59.795265
 10
114.757701
 20
58.545265
 42
-1.0
 10
114.457701
 20
58.545265
  0
LWPOLYLINE
  5
45E
100
AcDbEntity
  8
SOLDERMASK_PADS_TOP
100
AcDbPolyline
 90
        4
 70
         1
 10
113.957701
 20
59.795265
 42
-1.0
 10
114.257701
 20
59.795265
 10
114.257701
 20
58.545265
 42
-1.0
 10
113.957701
 20
58.545265
  0
LWPOLYLINE
  5
45F
100
AcDbEntity
  8
SOLDERMASK_PADS_TOP
100
AcDbPolyline
 90
        4
 70
         1
 10
113.457701
 20
59.795265
 42
-1.0
 10
113.757701
 20
59.795265
 10
113.757701
 20
58.545265
 42
-1.0
 10
113.457701
 20
58.545265
  0
LWPOLYLINE
  5
460
100
AcDbEntity
  8
SOLDERMASK_PADS_TOP
100
AcDbPolyline
 90
        4
 70
         1
 10
112.957701
 20
59.795265
 42
-1.0
 10
113.257701
 20
59.795265
 10
113.257701
 20
58.545265
 42
-1.0
 10
112.957701
 20
58.545265
  0
LWPOLYLINE
  5
461
100
AcDbEntity
  8
SOLDERMASK_PADS_TOP
100
AcDbPolyline
 90
        4
 70
         1
 10
112.457701
 20
59.795265
 42
-1.0
 10
112.757701
 20
59.795265
 10
112.757701
 20
58.545265
 42
-1.0
 10
112.457701
 20
58.545265
  0
LWPOLYLINE
  5
462
100
AcDbEntity
  8
SOLDERMASK_PADS_TOP
100
AcDbPolyline
 90
        4
 70
         1
 10
111.957701
 20
59.795265
 42
-1.0
 10
112.257701
 20
59.795265
 10
112.257701
 20
58.545265
 42
-1.0
 10
111.957701
 20
58.545265
  0
LWPOLYLINE
  5
463
100
AcDbEntity
  8
SOLDERMASK_PADS_TOP
100
AcDbPolyline
 90
        4
 70
         1
 10
111.457701
 20
59.795265
 42
-1.0
 10
111.757701
 20
59.795265
 10
111.757701
 20
58.545265
 42
-1.0
 10
111.457701
 20
58.545265
  0
LWPOLYLINE
  5
464
100
AcDbEntity
  8
SOLDERMASK_PADS_TOP
100
AcDbPolyline
 90
        4
 70
         1
 10
110.957701
 20
59.795265
 42
-1.0
 10
111.257701
 20
59.795265
 10
111.257701
 20
58.545265
 42
-1.0
 10
110.957701
 20
58.545265
  0
LWPOLYLINE
  5
465
100
AcDbEntity
  8
SOLDERMASK_PADS_TOP
100
AcDbPolyline
 90
        4
 70
         1
 10
110.457701
 20
59.795265
 42
-1.0
 10
110.757701
 20
59.795265
 10
110.757701
 20
58.545265
 42
-1.0
 10
110.457701
 20
58.545265
  0
LWPOLYLINE
  5
466
100
AcDbEntity
  8
SOLDERMASK_PADS_TOP
100
AcDbPolyline
 90
        4
 70
         1
 10
109.282701
 20
49.870265
 42
-1.0
 10
109.282701
 20
49.570265
 10
108.032701
 20
49.570265
 42
-1.0
 10
108.032701
 20
49.870265
  0
CIRCLE
  5
467
100
AcDbEntity
  8
SOLDERMASK_PADS_TOP
100
AcDbCircle
 10
103.385304
 20
55.980856
 30
0.0
 40
0.75
  0
CIRCLE
  5
468
100
AcDbEntity
  8
SOLDERMASK_PADS_TOP
100
AcDbCircle
 10
103.385304
 20
53.440854
 30
0.0
 40
0.75
  0
CIRCLE
  5
469
100
AcDbEntity
  8
SOLDERMASK_PADS_TOP
100
AcDbCircle
 10
144.22
 20
54.6
 30
0.0
 40
0.7
  0
LWPOLYLINE
  5
46A
100
AcDbEntity
  8
SOLDERMASK_PADS_TOP
100
AcDbPolyline
 90
        4
 70
         1
 10
148.6
 20
53.9
 10
148.6
 20
55.3
 10
150.0
 20
55.3
 10
150.0
 20
53.9
  0
CIRCLE
  5
46B
100
AcDbEntity
  8
SOLDERMASK_PADS_TOP
100
AcDbCircle
 10
146.76
 20
54.6
 30
0.0
 40
0.7
  0
CIRCLE
  5
46C
100
AcDbEntity
  8
SOLDERMASK_PADS_TOP
100
AcDbCircle
 10
153.04
 20
62.96
 30
0.0
 40
0.75
  0
LWPOLYLINE
  5
46D
100
AcDbEntity
  8
SOLDERMASK_PADS_TOP
100
AcDbPolyline
 90
        4
 70
         1
 10
152.24
 20
55.16
 10
152.24
 20
56.76
 10
153.84
 20
56.76
 10
153.84
 20
55.16
  0
CIRCLE
  5
46E
100
AcDbEntity
  8
SOLDERMASK_PADS_TOP
100
AcDbCircle
 10
153.04
 20
58.46
 30
0.0
 40
0.75
  0
CIRCLE
  5
46F
100
AcDbEntity
  8
SOLDERMASK_PADS_TOP
100
AcDbCircle
 10
153.04
 20
60.46
 30
0.0
 40
0.75
  0
CIRCLE
  5
470
100
AcDbEntity
  8
SOLDERMASK_PADS_TOP
100
AcDbCircle
 10
155.76
 20
52.86
 30
0.0
 40
1.65
  0
CIRCLE
  5
471
100
AcDbEntity
  8
SOLDERMASK_PADS_TOP
100
AcDbCircle
 10
155.76
 20
66.06
 30
0.0
 40
1.65
  0
LWPOLYLINE
  5
472
100
AcDbEntity
  8
SOLDERMASK_PADS_TOP
100
AcDbPolyline
 90
        4
 70
         1
 10
138.484805
 20
28.652645
 42
-1.0
 10
138.484805
 20
29.252645
 10
139.884805
 20
29.252645
 42
-1.0
 10
139.884805
 20
28.652645
  0
LWPOLYLINE
  5
473
100
AcDbEntity
  8
SOLDERMASK_PADS_TOP
100
AcDbPolyline
 90
        4
 70
         1
 10
138.484805
 20
29.922645
 42
-1.0
 10
138.484805
 20
30.522645
 10
139.884805
 20
30.522645
 42
-1.0
 10
139.884805
 20
29.922645
  0
LWPOLYLINE
  5
474
100
AcDbEntity
  8
SOLDERMASK_PADS_TOP
100
AcDbPolyline
 90
        4
 70
         1
 10
133.584805
 20
29.922645
 42
-1.0
 10
133.584805
 20
30.522645
 10
134.984805
 20
30.522645
 42
-1.0
 10
134.984805
 20
29.922645
  0
LWPOLYLINE
  5
475
100
AcDbEntity
  8
SOLDERMASK_PADS_TOP
100
AcDbPolyline
 90
        4
 70
         1
 10
133.584805
 20
28.652645
 42
-1.0
 10
133.584805
 20
29.252645
 10
134.984805
 20
29.252645
 42
-1.0
 10
134.984805
 20
28.652645
  0
LWPOLYLINE
  5
476
100
AcDbEntity
  8
SOLDERMASK_PADS_TOP
100
AcDbPolyline
 90
        4
 70
         1
 10
133.584805
 20
22.302645
 42
-1.0
 10
133.584805
 20
22.902645
 10
134.984805
 20
22.902645
 42
-1.0
 10
134.984805
 20
22.302645
  0
LWPOLYLINE
  5
477
100
AcDbEntity
  8
SOLDERMASK_PADS_TOP
100
AcDbPolyline
 90
        4
 70
         1
 10
133.584805
 20
21.032645
 42
-1.0
 10
133.584805
 20
21.632645
 10
134.984805
 20
21.632645
 42
-1.0
 10
134.984805
 20
21.032645
  0
LWPOLYLINE
  5
478
100
AcDbEntity
  8
SOLDERMASK_PADS_TOP
100
AcDbPolyline
 90
        4
 70
         1
 10
138.484805
 20
24.842645
 42
-1.0
 10
138.484805
 20
25.442645
 10
139.884805
 20
25.442645
 42
-1.0
 10
139.884805
 20
24.842645
  0
LWPOLYLINE
  5
479
100
AcDbEntity
  8
SOLDERMASK_PADS_TOP
100
AcDbPolyline
 90
        4
 70
         1
 10
138.484805
 20
23.572645
 42
-1.0
 10
138.484805
 20
24.172645
 10
139.884805
 20
24.172645
 42
-1.0
 10
139.884805
 20
23.572645
  0
LWPOLYLINE
  5
47A
100
AcDbEntity
  8
SOLDERMASK_PADS_TOP
100
AcDbPolyline
 90
        4
 70
         1
 10
138.484805
 20
27.382645
 42
-1.0
 10
138.484805
 20
27.982645
 10
139.884805
 20
27.982645
 42
-1.0
 10
139.884805
 20
27.382645
  0
LWPOLYLINE
  5
47B
100
AcDbEntity
  8
SOLDERMASK_PADS_TOP
100
AcDbPolyline
 90
        4
 70
         1
 10
138.484805
 20
22.302645
 42
-1.0
 10
138.484805
 20
22.902645
 10
139.884805
 20
22.902645
 42
-1.0
 10
139.884805
 20
22.302645
  0
LWPOLYLINE
  5
47C
100
AcDbEntity
  8
SOLDERMASK_PADS_TOP
100
AcDbPolyline
 90
        4
 70
         1
 10
138.484805
 20
26.112645
 42
-1.0
 10
138.484805
 20
26.712645
 10
139.884805
 20
26.712645
 42
-1.0
 10
139.884805
 20
26.112645
  0
LWPOLYLINE
  5
47D
100
AcDbEntity
  8
SOLDERMASK_PADS_TOP
100
AcDbPolyline
 90
        4
 70
         1
 10
138.484805
 20
21.032645
 42
-1.0
 10
138.484805
 20
21.632645
 10
139.884805
 20
21.632645
 42
-1.0
 10
139.884805
 20
21.032645
  0
LWPOLYLINE
  5
47E
100
AcDbEntity
  8
SOLDERMASK_PADS_TOP
100
AcDbPolyline
 90
        4
 70
         1
 10
133.584805
 20
26.112645
 42
-1.0
 10
133.584805
 20
26.712645
 10
134.984805
 20
26.712645
 42
-1.0
 10
134.984805
 20
26.112645
  0
LWPOLYLINE
  5
47F
100
AcDbEntity
  8
SOLDERMASK_PADS_TOP
100
AcDbPolyline
 90
        4
 70
         1
 10
133.584805
 20
27.382645
 42
-1.0
 10
133.584805
 20
27.982645
 10
134.984805
 20
27.982645
 42
-1.0
 10
134.984805
 20
27.382645
  0
LWPOLYLINE
  5
480
100
AcDbEntity
  8
SOLDERMASK_PADS_TOP
100
AcDbPolyline
 90
        4
 70
         1
 10
133.584805
 20
23.572645
 42
-1.0
 10
133.584805
 20
24.172645
 10
134.984805
 20
24.172645
 42
-1.0
 10
134.984805
 20
23.572645
  0
LWPOLYLINE
  5
481
100
AcDbEntity
  8
SOLDERMASK_PADS_TOP
100
AcDbPolyline
 90
        4
 70
         1
 10
133.584805
 20
24.842645
 42
-1.0
 10
133.584805
 20
25.442645
 10
134.984805
 20
25.442645
 42
-1.0
 10
134.984805
 20
24.842645
  0
CIRCLE
  5
482
100
AcDbEntity
  8
SOLDERMASK_PADS_TOP
100
AcDbCircle
 10
144.22
 20
63.8
 30
0.0
 40
0.7
  0
LWPOLYLINE
  5
483
100
AcDbEntity
  8
SOLDERMASK_PADS_TOP
100
AcDbPolyline
 90
        4
 70
         1
 10
148.6
 20
63.1
 10
148.6
 20
64.5
 10
150.0
 20
64.5
 10
150.0
 20
63.1
  0
CIRCLE
  5
484
100
AcDbEntity
  8
SOLDERMASK_PADS_TOP
100
AcDbCircle
 10
146.76
 20
63.8
 30
0.0
 40
0.7
  0
CIRCLE
  5
485
100
AcDbEntity
  8
SOLDERMASK_PADS_TOP
100
AcDbCircle
 10
145.856915
 20
32.120213
 30
0.0
 40
0.75
  0
CIRCLE
  5
486
100
AcDbEntity
  8
SOLDERMASK_PADS_TOP
100
AcDbCircle
 10
148.396915
 20
42.280213
 30
0.0
 40
0.75
  0
CIRCLE
  5
487
100
AcDbEntity
  8
SOLDERMASK_PADS_TOP
100
AcDbCircle
 10
148.396915
 20
39.740213
 30
0.0
 40
0.75
  0
CIRCLE
  5
488
100
AcDbEntity
  8
SOLDERMASK_PADS_TOP
100
AcDbCircle
 10
148.396915
 20
37.200213
 30
0.0
 40
0.75
  0
CIRCLE
  5
489
100
AcDbEntity
  8
SOLDERMASK_PADS_TOP
100
AcDbCircle
 10
148.396915
 20
34.660213
 30
0.0
 40
0.75
  0
CIRCLE
  5
48A
100
AcDbEntity
  8
SOLDERMASK_PADS_TOP
100
AcDbCircle
 10
148.396915
 20
32.120213
 30
0.0
 40
0.75
  0
CIRCLE
  5
48B
100
AcDbEntity
  8
SOLDERMASK_PADS_TOP
100
AcDbCircle
 10
148.396915
 20
29.580213
 30
0.0
 40
0.75
  0
CIRCLE
  5
48C
100
AcDbEntity
  8
SOLDERMASK_PADS_TOP
100
AcDbCircle
 10
148.396915
 20
27.040213
 30
0.0
 40
0.75
  0
CIRCLE
  5
48D
100
AcDbEntity
  8
SOLDERMASK_PADS_TOP
100
AcDbCircle
 10
148.396915
 20
24.500213
 30
0.0
 40
0.75
  0
CIRCLE
  5
48E
100
AcDbEntity
  8
SOLDERMASK_PADS_TOP
100
AcDbCircle
 10
148.396915
 20
21.960213
 30
0.0
 40
0.75
  0
LWPOLYLINE
  5
48F
100
AcDbEntity
  8
SOLDERMASK_PADS_TOP
100
AcDbPolyline
 90
        4
 70
         1
 10
145.056915
 20
44.020213
 10
145.056915
 20
45.620213
 10
146.656915
 20
45.620213
 10
146.656915
 20
44.020213
  0
CIRCLE
  5
490
100
AcDbEntity
  8
SOLDERMASK_PADS_TOP
100
AcDbCircle
 10
148.396915
 20
44.820213
 30
0.0
 40
0.75
  0
CIRCLE
  5
491
100
AcDbEntity
  8
SOLDERMASK_PADS_TOP
100
AcDbCircle
 10
145.856915
 20
27.040213
 30
0.0
 40
0.75
  0
CIRCLE
  5
492
100
AcDbEntity
  8
SOLDERMASK_PADS_TOP
100
AcDbCircle
 10
145.856915
 20
39.740213
 30
0.0
 40
0.75
  0
CIRCLE
  5
493
100
AcDbEntity
  8
SOLDERMASK_PADS_TOP
100
AcDbCircle
 10
145.856915
 20
29.580213
 30
0.0
 40
0.75
  0
CIRCLE
  5
494
100
AcDbEntity
  8
SOLDERMASK_PADS_TOP
100
AcDbCircle
 10
145.856915
 20
37.200213
 30
0.0
 40
0.75
  0
CIRCLE
  5
495
100
AcDbEntity
  8
SOLDERMASK_PADS_TOP
100
AcDbCircle
 10
145.856915
 20
42.280213
 30
0.0
 40
0.75
  0
CIRCLE
  5
496
100
AcDbEntity
  8
SOLDERMASK_PADS_TOP
100
AcDbCircle
 10
145.856915
 20
34.660213
 30
0.0
 40
0.75
  0
CIRCLE
  5
497
100
AcDbEntity
  8
SOLDERMASK_PADS_TOP
100
AcDbCircle
 10
145.856915
 20
24.500213
 30
0.0
 40
0.75
  0
CIRCLE
  5
498
100
AcDbEntity
  8
SOLDERMASK_PADS_TOP
100
AcDbCircle
 10
145.856915
 20
21.960213
 30
0.0
 40
0.75
  0
LWPOLYLINE
  5
499
100
AcDbEntity
  8
SOLDERMASK_PADS_TOP
100
AcDbPolyline
 90
        4
 70
         1
 10
107.005
 20
6.95
 42
-1.0
 10
106.405
 20
6.95
 10
106.405
 20
8.35
 42
-1.0
 10
107.005
 20
8.35
  0
LWPOLYLINE
  5
49A
100
AcDbEntity
  8
SOLDERMASK_PADS_TOP
100
AcDbPolyline
 90
        4
 70
         1
 10
105.735
 20
6.95
 42
-1.0
 10
105.135
 20
6.95
 10
105.135
 20
8.35
 42
-1.0
 10
105.735
 20
8.35
  0
LWPOLYLINE
  5
49B
100
AcDbEntity
  8
SOLDERMASK_PADS_TOP
100
AcDbPolyline
 90
        4
 70
         1
 10
104.465
 20
6.95
 42
-1.0
 10
103.865
 20
6.95
 10
103.865
 20
8.35
 42
-1.0
 10
104.465
 20
8.35
  0
LWPOLYLINE
  5
49C
100
AcDbEntity
  8
SOLDERMASK_PADS_TOP
100
AcDbPolyline
 90
        4
 70
         1
 10
103.195
 20
6.95
 42
-1.0
 10
102.595
 20
6.95
 10
102.595
 20
8.35
 42
-1.0
 10
103.195
 20
8.35
  0
LWPOLYLINE
  5
49D
100
AcDbEntity
  8
SOLDERMASK_PADS_TOP
100
AcDbPolyline
 90
        4
 70
         1
 10
103.195
 20
2.05
 42
-1.0
 10
102.595
 20
2.05
 10
102.595
 20
3.45
 42
-1.0
 10
103.195
 20
3.45
  0
LWPOLYLINE
  5
49E
100
AcDbEntity
  8
SOLDERMASK_PADS_TOP
100
AcDbPolyline
 90
        4
 70
         1
 10
104.465
 20
2.05
 42
-1.0
 10
103.865
 20
2.05
 10
103.865
 20
3.45
 42
-1.0
 10
104.465
 20
3.45
  0
LWPOLYLINE
  5
49F
100
AcDbEntity
  8
SOLDERMASK_PADS_TOP
100
AcDbPolyline
 90
        4
 70
         1
 10
105.735
 20
2.05
 42
-1.0
 10
105.135
 20
2.05
 10
105.135
 20
3.45
 42
-1.0
 10
105.735
 20
3.45
  0
LWPOLYLINE
  5
4A0
100
AcDbEntity
  8
SOLDERMASK_PADS_TOP
100
AcDbPolyline
 90
        4
 70
         1
 10
107.005
 20
2.05
 42
-1.0
 10
106.405
 20
2.05
 10
106.405
 20
3.45
 42
-1.0
 10
107.005
 20
3.45
  0
LWPOLYLINE
  5
4A1
100
AcDbEntity
  8
SOLDERMASK_PADS_TOP
100
AcDbPolyline
 90
        4
 70
         1
 10
140.935
 20
85.675
 42
-1.0
 10
141.985
 20
85.675
 10
141.985
 20
82.925
 42
-1.0
 10
140.935
 20
82.925
  0
LWPOLYLINE
  5
4A2
100
AcDbEntity
  8
SOLDERMASK_PADS_TOP
100
AcDbPolyline
 90
        4
 70
         1
 10
138.775
 20
89.575
 10
138.775
 20
99.025
 10
149.225
 20
99.025
 10
149.225
 20
89.575
  0
LWPOLYLINE
  5
4A3
100
AcDbEntity
  8
SOLDERMASK_PADS_TOP
100
AcDbPolyline
 90
        4
 70
         1
 10
143.475
 20
85.675
 42
-1.0
 10
144.525
 20
85.675
 10
144.525
 20
82.925
 42
-1.0
 10
143.475
 20
82.925
  0
LWPOLYLINE
  5
4A4
100
AcDbEntity
  8
SOLDERMASK_PADS_TOP
100
AcDbPolyline
 90
        4
 70
         1
 10
146.015
 20
85.675
 42
-1.0
 10
147.065
 20
85.675
 10
147.065
 20
82.925
 42
-1.0
 10
146.015
 20
82.925
  0
CIRCLE
  5
4A5
100
AcDbEntity
  8
SOLDERMASK_PADS_TOP
100
AcDbCircle
 10
144.22
 20
61.2
 30
0.0
 40
0.7
  0
LWPOLYLINE
  5
4A6
100
AcDbEntity
  8
SOLDERMASK_PADS_TOP
100
AcDbPolyline
 90
        4
 70
         1
 10
148.6
 20
60.5
 10
148.6
 20
61.9
 10
150.0
 20
61.9
 10
150.0
 20
60.5
  0
CIRCLE
  5
4A7
100
AcDbEntity
  8
SOLDERMASK_PADS_TOP
100
AcDbCircle
 10
146.76
 20
61.2
 30
0.0
 40
0.7
  0
ENDSEC
  0
SECTION
  2
OBJECTS
  0
DICTIONARY
  5
19
100
AcDbDictionary
  3
ACAD_GROUP
350
1A
  3
ACAD_MLINESTYLE
350
1B
  0
DICTIONARY
  5
1A
102
{ACAD_REACTORS
330
19
102
}
100
AcDbDictionary
  0
DICTIONARY
  5
1B
102
{ACAD_REACTORS
330
19
102
}
100
AcDbDictionary
  3
STANDARD
350
1C
  0
MLINESTYLE
  5
1C
102
{ACAD_REACTORS
330
1B
102
}
100
AcDbMlineStyle
  2
STANDARD
 70
         0
  3

 62
         0
 51
90.0
 52
90.0
 71
         2
 49
0.5
 62
       256
  6
BYLAYER
 49
-0.5
 62
       256
  6
BYLAYER
  0
DICTIONARY
  5
22
102
{ACAD_REACTORS
330
19
102
}
100
AcDbDictionary
  0
ENDSEC
  0
EOF
